  0
SECTION
  2
HEADER
  9
$ACADVER
  1
AC1012
  9
$DWGCODEPAGE
  3
ansi_1252
  9
$INSBASE
 10
0.0
 20
0.0
 30
0.0
  9
$EXTMIN
 10
-63.050032
 20
-31.895833
 30
0.0
  9
$EXTMAX
 10
244.705451
 20
54.504426
 30
0.0
  9
$LIMMIN
 10
-100.0
 20
-60.0
  9
$LIMMAX
 10
100.0
 20
100.0
  9
$ORTHOMODE
 70
     1
  9
$REGENMODE
 70
     1
  9
$FILLMODE
 70
     1
  9
$QTEXTMODE
 70
     0
  9
$MIRRTEXT
 70
     0
  9
$DRAGMODE
 70
     2
  9
$LTSCALE
 40
1.0
  9
$OSMODE
 70
     0
  9
$ATTMODE
 70
     1
  9
$TEXTSIZE
 40
1.328166
  9
$TRACEWID
 40
0.05
  9
$TEXTSTYLE
  7
STANDARD
  9
$CLAYER
  8
C1
  9
$CELTYPE
  6
BYLAYER
  9
$CECOLOR
 62
   256
  9
$CELTSCALE
 40
1.0
  9
$DELOBJ
 70
     1
  9
$DISPSILH
 70
     0
  9
$DIMSCALE
 40
5.0
  9
$DIMASZ
 40
0.18
  9
$DIMEXO
 40
0.0625
  9
$DIMDLI
 40
0.38
  9
$DIMRND
 40
0.0
  9
$DIMDLE
 40
0.0
  9
$DIMEXE
 40
0.18
  9
$DIMTP
 40
0.0
  9
$DIMTM
 40
0.0
  9
$DIMTXT
 40
0.18
  9
$DIMCEN
 40
0.09
  9
$DIMTSZ
 40
0.0
  9
$DIMTOL
 70
     0
  9
$DIMLIM
 70
     0
  9
$DIMTIH
 70
     1
  9
$DIMTOH
 70
     1
  9
$DIMSE1
 70
     0
  9
$DIMSE2
 70
     0
  9
$DIMTAD
 70
     0
  9
$DIMZIN
 70
     0
  9
$DIMBLK
  1

  9
$DIMASO
 70
     1
  9
$DIMSHO
 70
     0
  9
$DIMPOST
  1

  9
$DIMAPOST
  1

  9
$DIMALT
 70
     0
  9
$DIMALTD
 70
     2
  9
$DIMALTF
 40
25.4
  9
$DIMLFAC
 40
1.0
  9
$DIMTOFL
 70
     0
  9
$DIMTVP
 40
0.0
  9
$DIMTIX
 70
     0
  9
$DIMSOXD
 70
     0
  9
$DIMSAH
 70
     0
  9
$DIMBLK1
  1

  9
$DIMBLK2
  1

  9
$DIMSTYLE
  2
STANDARD
  9
$DIMCLRD
 70
     0
  9
$DIMCLRE
 70
     0
  9
$DIMCLRT
 70
     0
  9
$DIMTFAC
 40
1.0
  9
$DIMGAP
 40
0.09
  9
$DIMJUST
 70
     0
  9
$DIMSD1
 70
     0
  9
$DIMSD2
 70
     0
  9
$DIMTOLJ
 70
     1
  9
$DIMTZIN
 70
     0
  9
$DIMALTZ
 70
     0
  9
$DIMALTTZ
 70
     0
  9
$DIMFIT
 70
     3
  9
$DIMUPT
 70
     0
  9
$DIMUNIT
 70
     2
  9
$DIMDEC
 70
     4
  9
$DIMTDEC
 70
     4
  9
$DIMALTU
 70
     2
  9
$DIMALTTD
 70
     2
  9
$DIMTXSTY
  7
STANDARD
  9
$DIMAUNIT
 70
     0
  9
$LUNITS
 70
     2
  9
$LUPREC
 70
     4
  9
$SKETCHINC
 40
0.1
  9
$FILLETRAD
 40
12.0
  9
$AUNITS
 70
     0
  9
$AUPREC
 70
     0
  9
$MENU
  1
images
  9
$ELEVATION
 40
0.0
  9
$PELEVATION
 40
0.0
  9
$THICKNESS
 40
0.0
  9
$LIMCHECK
 70
     0
  9
$BLIPMODE
 70
     1
  9
$CHAMFERA
 40
0.0
  9
$CHAMFERB
 40
0.0
  9
$CHAMFERC
 40
0.0
  9
$CHAMFERD
 40
0.0
  9
$SKPOLY
 70
     0
  9
$TDCREATE
 40
2449401.839950000
  9
$TDUPDATE
 40
2449402.396858217
  9
$TDINDWG
 40
0.5563634259
  9
$TDUSRTIMER
 40
0.5563634259
  9
$USRTIMER
 70
     1
  9
$ANGBASE
 50
0.0
  9
$ANGDIR
 70
     0
  9
$PDMODE
 70
    32
  9
$PDSIZE
 40
0.1
  9
$PLINEWID
 40
0.0
  9
$COORDS
 70
     2
  9
$SPLFRAME
 70
     0
  9
$SPLINETYPE
 70
     6
  9
$SPLINESEGS
 70
     8
  9
$ATTDIA
 70
     0
  9
$ATTREQ
 70
     1
  9
$HANDLING
 70
     1
  9
$HANDSEED
  5
71E
  9
$SURFTAB1
 70
     6
  9
$SURFTAB2
 70
     6
  9
$SURFTYPE
 70
     6
  9
$SURFU
 70
     6
  9
$SURFV
 70
     6
  9
$UCSNAME
  2

  9
$UCSORG
 10
0.0
 20
0.0
 30
0.0
  9
$UCSXDIR
 10
1.0
 20
0.0
 30
0.0
  9
$UCSYDIR
 10
0.0
 20
1.0
 30
0.0
  9
$PUCSNAME
  2

  9
$PUCSORG
 10
0.0
 20
0.0
 30
0.0
  9
$PUCSXDIR
 10
1.0
 20
0.0
 30
0.0
  9
$PUCSYDIR
 10
0.0
 20
1.0
 30
0.0
  9
$USERI1
 70
     0
  9
$USERI2
 70
     0
  9
$USERI3
 70
     0
  9
$USERI4
 70
     0
  9
$USERI5
 70
     0
  9
$USERR1
 40
0.0
  9
$USERR2
 40
0.0
  9
$USERR3
 40
0.0
  9
$USERR4
 40
0.0
  9
$USERR5
 40
0.0
  9
$WORLDVIEW
 70
     1
  9
$SHADEDGE
 70
     3
  9
$SHADEDIF
 70
    70
  9
$TILEMODE
 70
     1
  9
$MAXACTVP
 70
    16
  9
$PINSBASE
 10
0.0
 20
0.0
 30
0.0
  9
$PLIMCHECK
 70
     0
  9
$PEXTMIN
 10
1.000000E+20
 20
1.000000E+20
 30
1.000000E+20
  9
$PEXTMAX
 10
-1.000000E+20
 20
-1.000000E+20
 30
-1.000000E+20
  9
$PLIMMIN
 10
0.0
 20
0.0
  9
$PLIMMAX
 10
12.0
 20
9.0
  9
$UNITMODE
 70
     0
  9
$VISRETAIN
 70
     0
  9
$PLINEGEN
 70
     0
  9
$PSLTSCALE
 70
     0
  9
$TREEDEPTH
 70
  3020
  9
$PICKSTYLE
 70
     1
  9
$CMLSTYLE
  2
STANDARD
  9
$CMLJUST
 70
     0
  9
$CMLSCALE
 40
1.0
  9
$SAVEIMAGES
 70
     0
  0
ENDSEC
  0
SECTION
  2
CLASSES
  0
ENDSEC
  0
SECTION
  2
TABLES
  0
TABLE
  2
VPORT
  5
8
100
AcDbSymbolTable
 70
     3
  0
VPORT
  5
71D
100
AcDbSymbolTableRecord
100
AcDbViewportTableRecord
  2
*ACTIVE
 70
     0
 10
0.0
 20
0.0
 11
1.0
 21
1.0
 12
65.35582
 22
64.687272
 13
0.0
 23
0.0
 14
0.125
 24
0.125
 15
0.0
 25
0.0
 16
0.0
 26
0.0
 36
1.0
 17
0.0
 27
0.0
 37
0.0
 40
232.632611
 41
2.199557
 42
50.0
 43
0.0
 44
0.0
 50
0.0
 51
0.0
 71
     0
 72
 20000
 73
     1
 74
     1
 75
     0
 76
     0
 77
     0
 78
     0
  0
ENDTAB
  0
TABLE
  2
LTYPE
  5
5
100
AcDbSymbolTable
 70
     2
  0
LTYPE
  5
12
100
AcDbSymbolTableRecord
100
AcDbLinetypeTableRecord
  2
BYBLOCK
 70
     0
  3

 72
    65
 73
     0
 40
0.0
  0
LTYPE
  5
13
100
AcDbSymbolTableRecord
100
AcDbLinetypeTableRecord
  2
BYLAYER
 70
     0
  3

 72
    65
 73
     0
 40
0.0
  0
LTYPE
  5
14
100
AcDbSymbolTableRecord
100
AcDbLinetypeTableRecord
  2
CONTINUOUS
 70
    64
  3
Solid line
 72
    65
 73
     0
 40
0.0
  0
LTYPE
  5
2B
100
AcDbSymbolTableRecord
100
AcDbLinetypeTableRecord
  2
DIVIDE
 70
    64
  3
__ . . __ . . __ . . __ . . __ . . __ . . __
 72
    65
 73
     6
 40
1.25
 49
0.5
 74
     0
 49
-0.25
 74
     0
 49
0.0
 74
     0
 49
-0.25
 74
     0
 49
0.0
 74
     0
 49
-0.25
 74
     0
  0
ENDTAB
  0
TABLE
  2
LAYER
  5
2
100
AcDbSymbolTable
 70
     6
  0
LAYER
  5
F
100
AcDbSymbolTableRecord
100
AcDbLayerTableRecord
  2
0
 70
    65
 62
     7
  6
CONTINUOUS
  0
LAYER
  5
2E
100
AcDbSymbolTableRecord
100
AcDbLayerTableRecord
  2
C1
 70
    64
 62
     1
  6
CONTINUOUS
  0
LAYER
  5
2F
100
AcDbSymbolTableRecord
100
AcDbLayerTableRecord
  2
CT1
 70
    65
 62
     7
  6
CONTINUOUS
  0
LAYER
  5
30
100
AcDbSymbolTableRecord
100
AcDbLayerTableRecord
  2
BASE
 70
    64
 62
    15
  6
CONTINUOUS
  0
LAYER
  5
31
100
AcDbSymbolTableRecord
100
AcDbLayerTableRecord
  2
FRAME
 70
    65
 62
     8
  6
DIVIDE
  0
LAYER
  5
32
100
AcDbSymbolTableRecord
100
AcDbLayerTableRecord
  2
BORDER
 70
    65
 62
     7
  6
CONTINUOUS
  0
ENDTAB
  0
TABLE
  2
STYLE
  5
3
100
AcDbSymbolTable
 70
     1
  0
STYLE
  5
10
100
AcDbSymbolTableRecord
100
AcDbTextStyleTableRecord
  2
STANDARD
 70
    64
 40
0.0
 41
1.0
 50
0.0
 71
     0
 42
1.328166
  3
txt
  4

  0
ENDTAB
  0
TABLE
  2
VIEW
  5
6
100
AcDbSymbolTable
 70
     0
  0
ENDTAB
  0
TABLE
  2
UCS
  5
7
100
AcDbSymbolTable
 70
     0
  0
ENDTAB
  0
TABLE
  2
APPID
  5
9
100
AcDbSymbolTable
 70
     1
  0
APPID
  5
11
100
AcDbSymbolTableRecord
100
AcDbRegAppTableRecord
  2
ACAD
 70
     0
  0
ENDTAB
  0
TABLE
  2
DIMSTYLE
  5
A
100
AcDbSymbolTable
 70
     1
  0
DIMSTYLE
105
70F
100
AcDbSymbolTableRecord
100
AcDbDimStyleTableRecord
  2
STANDARD
 70
     0
  3

  4

  5

  6

  7

 40
1.0
 41
0.18
 42
0.0625
 43
0.38
 44
0.18
 45
0.0
 46
0.0
 47
0.0
 48
0.0
140
0.18
141
0.09
142
0.0
143
25.4
144
1.0
145
0.0
146
1.0
147
0.09
 71
     0
 72
     0
 73
     1
 74
     1
 75
     0
 76
     0
 77
     0
 78
     0
170
     0
171
     2
172
     0
173
     0
174
     0
175
     0
176
     0
177
     0
178
     0
270
     2
271
     4
272
     4
273
     2
274
     2
340
10
275
     0
280
     0
281
     0
282
     0
283
     1
284
     0
285
     0
286
     0
287
     3
288
     0
  0
ENDTAB
  0
TABLE
  2
BLOCK_RECORD
  5
1
100
AcDbSymbolTable
 70
    15
  0
BLOCK_RECORD
  5
18
100
AcDbSymbolTableRecord
100
AcDbBlockTableRecord
  2
*MODEL_SPACE
  0
BLOCK_RECORD
  5
15
100
AcDbSymbolTableRecord
100
AcDbBlockTableRecord
  2
*PAPER_SPACE
  0
BLOCK_RECORD
  5
1C
100
AcDbSymbolTableRecord
100
AcDbBlockTableRecord
  2
S_ON
  0
BLOCK_RECORD
  5
1D
100
AcDbSymbolTableRecord
100
AcDbBlockTableRecord
  2
S_OFF
  0
BLOCK_RECORD
  5
1E
100
AcDbSymbolTableRecord
100
AcDbBlockTableRecord
  2
P_ON
  0
BLOCK_RECORD
  5
1F
100
AcDbSymbolTableRecord
100
AcDbBlockTableRecord
  2
NFLOW
  0
BLOCK_RECORD
  5
20
100
AcDbSymbolTableRecord
100
AcDbBlockTableRecord
  2
END
  0
BLOCK_RECORD
  5
21
100
AcDbSymbolTableRecord
100
AcDbBlockTableRecord
  2
MOVE_S1
  0
BLOCK_RECORD
  5
22
100
AcDbSymbolTableRecord
100
AcDbBlockTableRecord
  2
ABSHEAD
  0
BLOCK_RECORD
  5
23
100
AcDbSymbolTableRecord
100
AcDbBlockTableRecord
  2
CALL_PT
  0
BLOCK_RECORD
  5
24
100
AcDbSymbolTableRecord
100
AcDbBlockTableRecord
  2
SEQ_BASE
  0
BLOCK_RECORD
  5
25
100
AcDbSymbolTableRecord
100
AcDbBlockTableRecord
  2
SEQ_CT1
  0
BLOCK_RECORD
  5
26
100
AcDbSymbolTableRecord
100
AcDbBlockTableRecord
  2
BORDER
  0
BLOCK_RECORD
  5
27
100
AcDbSymbolTableRecord
100
AcDbBlockTableRecord
  2
KEY
  0
BLOCK_RECORD
  5
28
100
AcDbSymbolTableRecord
100
AcDbBlockTableRecord
  2
FLOWER
  0
BLOCK_RECORD
  5
29
100
AcDbSymbolTableRecord
100
AcDbBlockTableRecord
  2
FLOWER2
  0
BLOCK_RECORD
  5
2A
100
AcDbSymbolTableRecord
100
AcDbBlockTableRecord
  2
FLOWER3
  0
ENDTAB
  0
ENDSEC
  0
SECTION
  2
BLOCKS
  0
BLOCK
  5
35
100
AcDbEntity
  8
BASE
100
AcDbBlockBegin
  2
*MODEL_SPACE
 70
     0
 10
0.0
 20
0.0
 30
0.0
  3
*MODEL_SPACE
  1

  0
ENDBLK
  5
36
100
AcDbEntity
  8
BASE
100
AcDbBlockEnd
  0
BLOCK
  5
33
100
AcDbEntity
 67
     1
  8
BASE
100
AcDbBlockBegin
  2
*PAPER_SPACE
 70
     0
 10
0.0
 20
0.0
 30
0.0
  3
*PAPER_SPACE
  1

  0
ENDBLK
  5
34
100
AcDbEntity
 67
     1
  8
BASE
100
AcDbBlockEnd
  0
BLOCK
  5
37
100
AcDbEntity
  8
0
100
AcDbBlockBegin
  2
S_ON
 70
    64
 10
-3.126809
 20
9.001555
 30
0.0
  3
S_ON
  1

  0
TEXT
  5
38
100
AcDbEntity
  8
0
100
AcDbText
 10
-3.126809
 20
9.001555
 30
0.0
 40
0.05
  1
SON
100
AcDbText
  0
TEXT
  5
39
100
AcDbEntity
  8
0
100
AcDbText
 10
-3.126809
 20
8.834888
 30
0.0
 40
0.05
  1
DWELL,F1.0
100
AcDbText
  0
TEXT
  5
3A
100
AcDbEntity
  8
0
100
AcDbText
 10
-3.126809
 20
8.668222
 30
0.0
 40
0.05
  1
LINEAR
100
AcDbText
  0
ENDBLK
  5
3B
100
AcDbEntity
  8
0
100
AcDbBlockEnd
  0
BLOCK
  5
3C
100
AcDbEntity
  8
0
100
AcDbBlockBegin
  2
S_OFF
 70
    64
 10
-2.132058
 20
9.791693
 30
0.0
  3
S_OFF
  1

  0
TEXT
  5
3D
100
AcDbEntity
  8
0
100
AcDbText
 10
-2.132058
 20
9.791693
 30
0.0
 40
0.05
  1
SOFF
100
AcDbText
  0
TEXT
  5
3E
100
AcDbEntity
  8
0
100
AcDbText
 10
-2.132058
 20
9.70836
 30
0.0
 40
0.05
  1
DWELL,F.5
100
AcDbText
  0
TEXT
  5
3F
100
AcDbEntity
  8
0
100
AcDbText
 10
-2.132058
 20
9.625026
 30
0.0
 40
0.05
  1
RAPID
100
AcDbText
  0
ENDBLK
  5
40
100
AcDbEntity
  8
0
100
AcDbBlockEnd
  0
BLOCK
  5
41
100
AcDbEntity
  8
0
100
AcDbBlockBegin
  2
P_ON
 70
    64
 10
0.0
 20
0.0
 30
0.0
  3
P_ON
  1

  0
POINT
  5
42
100
AcDbEntity
  8
0
100
AcDbPoint
 10
-0.000288
 20
-0.000208
 30
0.0
  0
INSERT
  5
43
100
AcDbEntity
  8
0
100
AcDbBlockReference
  2
S_ON
 10
-0.003247
 20
0.003517
 30
0.0
 41
0.024816
 42
0.024816
 43
0.024816
  0
ENDBLK
  5
44
100
AcDbEntity
  8
0
100
AcDbBlockEnd
  0
BLOCK
  5
45
100
AcDbEntity
  8
BASE
100
AcDbBlockBegin
  2
NFLOW
 70
    64
 10
0.0
 20
0.0
 30
0.0
  3
NFLOW
  1

  0
INSERT
  5
46
100
AcDbEntity
  8
CT1
100
AcDbBlockReference
  2
P_ON
 10
1.178622
 20
20.888592
 30
0.0
 41
-0.467277
 42
0.467277
 43
0.467277
 50
90.0
  0
POLYLINE
  5
47
100
AcDbEntity
  8
C1
100
AcDb2dPolyline
 66
     1
 10
0.0
 20
0.0
 30
0.0
 70
     1
  0
VERTEX
  5
48
100
AcDbEntity
  8
C1
100
AcDbVertex
100
AcDb2dVertex
 10
1.165424
 20
20.917485
 30
0.0
  0
VERTEX
  5
49
100
AcDbEntity
  8
C1
100
AcDbVertex
100
AcDb2dVertex
 10
1.256719
 20
20.857756
 30
0.0
 42
0.051536
  0
VERTEX
  5
4A
100
AcDbEntity
  8
C1
100
AcDbVertex
100
AcDb2dVertex
 10
1.445298
 20
20.774155
 30
0.0
 42
0.016015
  0
VERTEX
  5
4B
100
AcDbEntity
  8
C1
100
AcDbVertex
100
AcDb2dVertex
 10
2.045751
 20
20.600008
 30
0.0
 42
0.038218
  0
VERTEX
  5
4C
100
AcDbEntity
  8
C1
100
AcDbVertex
100
AcDb2dVertex
 10
2.408673
 20
20.536268
 30
0.0
 42
0.054525
  0
VERTEX
  5
4D
100
AcDbEntity
  8
C1
100
AcDbVertex
100
AcDb2dVertex
 10
2.20871
 20
20.314954
 30
0.0
 42
0.072287
  0
VERTEX
  5
4E
100
AcDbEntity
  8
C1
100
AcDbVertex
100
AcDb2dVertex
 10
2.052556
 20
20.016102
 30
0.0
 42
0.032395
  0
VERTEX
  5
4F
100
AcDbEntity
  8
C1
100
AcDbVertex
100
AcDb2dVertex
 10
1.986619
 20
19.780064
 30
0.0
 42
0.017924
  0
VERTEX
  5
50
100
AcDbEntity
  8
C1
100
AcDbVertex
100
AcDb2dVertex
 10
1.970411
 20
19.686644
 30
0.0
 42
-0.025034
  0
VERTEX
  5
51
100
AcDbEntity
  8
C1
100
AcDbVertex
100
AcDb2dVertex
 10
1.889526
 20
19.696124
 30
0.0
 42
-0.026317
  0
VERTEX
  5
52
100
AcDbEntity
  8
C1
100
AcDbVertex
100
AcDb2dVertex
 10
1.587963
 20
19.763354
 30
0.0
 42
-0.078488
  0
VERTEX
  5
53
100
AcDbEntity
  8
C1
100
AcDbVertex
100
AcDb2dVertex
 10
1.501503
 20
19.802863
 30
0.0
 42
-0.049987
  0
VERTEX
  5
54
100
AcDbEntity
  8
C1
100
AcDbVertex
100
AcDb2dVertex
 10
1.42726
 20
19.863539
 30
0.0
 42
-0.031585
  0
VERTEX
  5
55
100
AcDbEntity
  8
C1
100
AcDbVertex
100
AcDb2dVertex
 10
1.322942
 20
19.98186
 30
0.0
 42
-0.064829
  0
VERTEX
  5
56
100
AcDbEntity
  8
C1
100
AcDbVertex
100
AcDb2dVertex
 10
1.270179
 20
20.071922
 30
0.0
 42
-0.02221
  0
VERTEX
  5
57
100
AcDbEntity
  8
C1
100
AcDbVertex
100
AcDb2dVertex
 10
1.246754
 20
20.134905
 30
0.0
 42
-0.111627
  0
VERTEX
  5
58
100
AcDbEntity
  8
C1
100
AcDbVertex
100
AcDb2dVertex
 10
1.129312
 20
20.148511
 30
0.0
 42
-0.198371
  0
VERTEX
  5
59
100
AcDbEntity
  8
C1
100
AcDbVertex
100
AcDb2dVertex
 10
1.009701
 20
20.255408
 30
0.0
 42
-0.081524
  0
VERTEX
  5
5A
100
AcDbEntity
  8
C1
100
AcDbVertex
100
AcDb2dVertex
 10
0.983195
 20
20.345171
 30
0.0
 42
-0.068667
  0
VERTEX
  5
5B
100
AcDbEntity
  8
C1
100
AcDbVertex
100
AcDb2dVertex
 10
0.984648
 20
20.459703
 30
0.0
 42
-0.138725
  0
VERTEX
  5
5C
100
AcDbEntity
  8
C1
100
AcDbVertex
100
AcDb2dVertex
 10
1.059136
 20
20.624073
 30
0.0
 42
-0.064901
  0
VERTEX
  5
5D
100
AcDbEntity
  8
C1
100
AcDbVertex
100
AcDb2dVertex
 10
1.128115
 20
20.687056
 30
0.0
 42
-0.015352
  0
VERTEX
  5
5E
100
AcDbEntity
  8
C1
100
AcDbVertex
100
AcDb2dVertex
 10
1.124759
 20
20.707422
 30
0.0
 42
-0.098262
  0
VERTEX
  5
5F
100
AcDbEntity
  8
C1
100
AcDbVertex
100
AcDb2dVertex
 10
1.133032
 20
20.838032
 30
0.0
 42
-0.064069
  0
SEQEND
  5
60
100
AcDbEntity
  8
C1
  0
INSERT
  5
61
100
AcDbEntity
  8
CT1
100
AcDbBlockReference
  2
S_OFF
 10
1.307088
 20
20.666431
 30
0.0
 41
-0.467277
 42
0.467277
 43
0.467277
 50
90.0
  0
INSERT
  5
62
100
AcDbEntity
  8
CT1
100
AcDbBlockReference
  2
P_ON
 10
1.579898
 20
21.952065
 30
0.0
 41
-0.467277
 42
0.467277
 43
0.467277
 50
90.0
  0
POLYLINE
  5
63
100
AcDbEntity
  8
C1
100
AcDb2dPolyline
 66
     1
 10
0.0
 20
0.0
 30
0.0
  0
VERTEX
  5
64
100
AcDbEntity
  8
C1
100
AcDbVertex
100
AcDb2dVertex
 10
1.57917
 20
21.980867
 30
0.0
 42
0.057598
  0
VERTEX
  5
65
100
AcDbEntity
  8
C1
100
AcDbVertex
100
AcDb2dVertex
 10
1.761353
 20
21.584894
 30
0.0
 42
0.05435
  0
VERTEX
  5
66
100
AcDbEntity
  8
C1
100
AcDbVertex
100
AcDb2dVertex
 10
2.041527
 20
21.220048
 30
0.0
 42
0.038575
  0
VERTEX
  5
67
100
AcDbEntity
  8
C1
100
AcDbVertex
100
AcDb2dVertex
 10
2.253608
 20
21.030171
 30
0.0
 42
0.022142
  0
VERTEX
  5
68
100
AcDbEntity
  8
C1
100
AcDbVertex
100
AcDb2dVertex
 10
2.650326
 20
20.753588
 30
0.0
 42
0.013221
  0
VERTEX
  5
69
100
AcDbEntity
  8
C1
100
AcDbVertex
100
AcDb2dVertex
 10
2.708671
 20
20.718764
 30
0.0
 42
0.084871
  0
VERTEX
  5
6A
100
AcDbEntity
  8
C1
100
AcDbVertex
100
AcDb2dVertex
 10
2.471186
 20
20.593248
 30
0.0
 42
-0.000769
  0
VERTEX
  5
6B
100
AcDbEntity
  8
C1
100
AcDbVertex
100
AcDb2dVertex
 10
2.45798
 20
20.594273
 30
0.0
 42
-0.042842
  0
VERTEX
  5
6C
100
AcDbEntity
  8
C1
100
AcDbVertex
100
AcDb2dVertex
 10
2.061136
 20
20.660199
 30
0.0
 42
-0.016015
  0
VERTEX
  5
6D
100
AcDbEntity
  8
C1
100
AcDbVertex
100
AcDb2dVertex
 10
1.464505
 20
20.833238
 30
0.0
 42
-0.051536
  0
VERTEX
  5
6E
100
AcDbEntity
  8
C1
100
AcDbVertex
100
AcDb2dVertex
 10
1.287603
 20
20.911663
 30
0.0
 42
-0.061375
  0
VERTEX
  5
6F
100
AcDbEntity
  8
C1
100
AcDbVertex
100
AcDb2dVertex
 10
1.118918
 20
21.038009
 30
0.0
 42
-0.100543
  0
VERTEX
  5
70
100
AcDbEntity
  8
C1
100
AcDbVertex
100
AcDb2dVertex
 10
1.045292
 20
21.144499
 30
0.0
 42
-0.083483
  0
VERTEX
  5
71
100
AcDbEntity
  8
C1
100
AcDbVertex
100
AcDb2dVertex
 10
1.032021
 20
21.199218
 30
0.0
 42
-0.061841
  0
VERTEX
  5
72
100
AcDbEntity
  8
C1
100
AcDbVertex
100
AcDb2dVertex
 10
1.035972
 20
21.274888
 30
0.0
 42
-0.248411
  0
VERTEX
  5
73
100
AcDbEntity
  8
C1
100
AcDbVertex
100
AcDb2dVertex
 10
1.132686
 20
21.39882
 30
0.0
 42
-0.089146
  0
VERTEX
  5
74
100
AcDbEntity
  8
C1
100
AcDbVertex
100
AcDb2dVertex
 10
1.203001
 20
21.416277
 30
0.0
 42
-0.00846
  0
VERTEX
  5
75
100
AcDbEntity
  8
C1
100
AcDbVertex
100
AcDb2dVertex
 10
1.206406
 20
21.446019
 30
0.0
 42
-0.081271
  0
VERTEX
  5
76
100
AcDbEntity
  8
C1
100
AcDbVertex
100
AcDb2dVertex
 10
1.250324
 20
21.591545
 30
0.0
 42
-0.029097
  0
VERTEX
  5
77
100
AcDbEntity
  8
C1
100
AcDbVertex
100
AcDb2dVertex
 10
1.325818
 20
21.72542
 30
0.0
 42
-0.028503
  0
VERTEX
  5
78
100
AcDbEntity
  8
C1
100
AcDbVertex
100
AcDb2dVertex
 10
1.418079
 20
21.852322
 30
0.0
 42
-0.079856
  0
VERTEX
  5
79
100
AcDbEntity
  8
C1
100
AcDbVertex
100
AcDb2dVertex
 10
1.534728
 20
21.955835
 30
0.0
 42
-0.014131
  0
VERTEX
  5
7A
100
AcDbEntity
  8
C1
100
AcDbVertex
100
AcDb2dVertex
 10
1.578761
 20
21.98212
 30
0.0
  0
SEQEND
  5
7B
100
AcDbEntity
  8
C1
  0
INSERT
  5
7C
100
AcDbEntity
  8
CT1
100
AcDbBlockReference
  2
S_OFF
 10
1.532523
 20
21.643963
 30
0.0
 41
-0.467277
 42
0.467277
 43
0.467277
 50
90.0
  0
INSERT
  5
7D
100
AcDbEntity
  8
CT1
100
AcDbBlockReference
  2
P_ON
 10
2.043101
 20
22.583998
 30
0.0
 41
-0.467277
 42
0.467277
 43
0.467277
 50
90.0
  0
POLYLINE
  5
7E
100
AcDbEntity
  8
C1
100
AcDb2dPolyline
 66
     1
 10
0.0
 20
0.0
 30
0.0
 70
     1
  0
VERTEX
  5
7F
100
AcDbEntity
  8
C1
100
AcDbVertex
100
AcDb2dVertex
 10
2.010309
 20
22.587624
 30
0.0
  0
VERTEX
  5
80
100
AcDbEntity
  8
C1
100
AcDbVertex
100
AcDb2dVertex
 10
2.046774
 20
22.682706
 30
0.0
 42
-0.057816
  0
VERTEX
  5
81
100
AcDbEntity
  8
C1
100
AcDbVertex
100
AcDb2dVertex
 10
2.098415
 20
22.765041
 30
0.0
 42
-0.303636
  0
VERTEX
  5
82
100
AcDbEntity
  8
C1
100
AcDbVertex
100
AcDb2dVertex
 10
2.302868
 20
22.829528
 30
0.0
 42
-0.086247
  0
VERTEX
  5
83
100
AcDbEntity
  8
C1
100
AcDbVertex
100
AcDb2dVertex
 10
2.927866
 20
22.522891
 30
0.0
 42
-0.077867
  0
VERTEX
  5
84
100
AcDbEntity
  8
C1
100
AcDbVertex
100
AcDb2dVertex
 10
3.204086
 20
22.247661
 30
0.0
 42
-0.050471
  0
VERTEX
  5
85
100
AcDbEntity
  8
C1
100
AcDbVertex
100
AcDb2dVertex
 10
3.334323
 20
22.025847
 30
0.0
 42
0.010698
  0
VERTEX
  5
86
100
AcDbEntity
  8
C1
100
AcDbVertex
100
AcDb2dVertex
 10
3.257993
 20
21.928074
 30
0.0
 42
0.079113
  0
VERTEX
  5
87
100
AcDbEntity
  8
C1
100
AcDbVertex
100
AcDb2dVertex
 10
3.170584
 20
21.760031
 30
0.0
 42
0.031847
  0
VERTEX
  5
88
100
AcDbEntity
  8
C1
100
AcDbVertex
100
AcDb2dVertex
 10
3.145865
 20
21.666386
 30
0.0
 42
0.012959
  0
VERTEX
  5
89
100
AcDbEntity
  8
C1
100
AcDbVertex
100
AcDb2dVertex
 10
3.127337
 20
21.61595
 30
0.0
 42
0.055703
  0
VERTEX
  5
8A
100
AcDbEntity
  8
C1
100
AcDbVertex
100
AcDb2dVertex
 10
3.066589
 20
21.636174
 30
0.0
 42
0.099898
  0
VERTEX
  5
8B
100
AcDbEntity
  8
C1
100
AcDbVertex
100
AcDb2dVertex
 10
2.952553
 20
21.637423
 30
0.0
 42
0.079165
  0
VERTEX
  5
8C
100
AcDbEntity
  8
C1
100
AcDbVertex
100
AcDb2dVertex
 10
2.867228
 20
21.606645
 30
0.0
 42
0.049946
  0
VERTEX
  5
8D
100
AcDbEntity
  8
C1
100
AcDbVertex
100
AcDb2dVertex
 10
2.925661
 20
21.553813
 30
0.0
 42
0.081627
  0
VERTEX
  5
8E
100
AcDbEntity
  8
C1
100
AcDbVertex
100
AcDb2dVertex
 10
3.03983
 20
21.495473
 30
0.0
 42
0.033978
  0
VERTEX
  5
8F
100
AcDbEntity
  8
C1
100
AcDbVertex
100
AcDb2dVertex
 10
3.091934
 20
21.482635
 30
0.0
 42
0.003284
  0
VERTEX
  5
90
100
AcDbEntity
  8
C1
100
AcDbVertex
100
AcDb2dVertex
 10
3.08941
 20
21.469252
 30
0.0
 42
0.024868
  0
VERTEX
  5
91
100
AcDbEntity
  8
C1
100
AcDbVertex
100
AcDb2dVertex
 10
3.080974
 20
21.404791
 30
0.0
 42
0.026617
  0
VERTEX
  5
92
100
AcDbEntity
  8
C1
100
AcDbVertex
100
AcDb2dVertex
 10
3.058012
 20
21.422856
 30
0.0
 42
0.088838
  0
VERTEX
  5
93
100
AcDbEntity
  8
C1
100
AcDbVertex
100
AcDb2dVertex
 10
2.97026
 20
21.463757
 30
0.0
 42
0.054196
  0
VERTEX
  5
94
100
AcDbEntity
  8
C1
100
AcDbVertex
100
AcDb2dVertex
 10
2.911578
 20
21.472666
 30
0.0
 42
0.066107
  0
VERTEX
  5
95
100
AcDbEntity
  8
C1
100
AcDbVertex
100
AcDb2dVertex
 10
2.933962
 20
21.391243
 30
0.0
 42
0.088839
  0
VERTEX
  5
96
100
AcDbEntity
  8
C1
100
AcDbVertex
100
AcDb2dVertex
 10
2.995699
 20
21.296499
 30
0.0
 42
0.003706
  0
VERTEX
  5
97
100
AcDbEntity
  8
C1
100
AcDbVertex
100
AcDb2dVertex
 10
2.95566
 20
21.317883
 30
0.0
 42
0.009057
  0
VERTEX
  5
98
100
AcDbEntity
  8
C1
100
AcDbVertex
100
AcDb2dVertex
 10
2.856504
 20
21.367632
 30
0.0
 42
0.062527
  0
VERTEX
  5
99
100
AcDbEntity
  8
C1
100
AcDbVertex
100
AcDb2dVertex
 10
2.806395
 20
21.419071
 30
0.0
 42
0.081782
  0
VERTEX
  5
9A
100
AcDbEntity
  8
C1
100
AcDbVertex
100
AcDb2dVertex
 10
2.724666
 20
21.464829
 30
0.0
 42
-0.015012
  0
VERTEX
  5
9B
100
AcDbEntity
  8
C1
100
AcDbVertex
100
AcDb2dVertex
 10
2.658804
 20
21.566038
 30
0.0
 42
-0.006512
  0
VERTEX
  5
9C
100
AcDbEntity
  8
C1
100
AcDbVertex
100
AcDb2dVertex
 10
2.632145
 20
21.611138
 30
0.0
 42
0.083783
  0
VERTEX
  5
9D
100
AcDbEntity
  8
C1
100
AcDbVertex
100
AcDb2dVertex
 10
2.606214
 20
21.698768
 30
0.0
 42
0.126302
  0
VERTEX
  5
9E
100
AcDbEntity
  8
C1
100
AcDbVertex
100
AcDb2dVertex
 10
2.517604
 20
21.802666
 30
0.0
 42
0.088838
  0
VERTEX
  5
9F
100
AcDbEntity
  8
C1
100
AcDbVertex
100
AcDb2dVertex
 10
2.429852
 20
21.843567
 30
0.0
 42
0.054196
  0
VERTEX
  5
A0
100
AcDbEntity
  8
C1
100
AcDbVertex
100
AcDb2dVertex
 10
2.37117
 20
21.852476
 30
0.0
 42
0.066107
  0
VERTEX
  5
A1
100
AcDbEntity
  8
C1
100
AcDbVertex
100
AcDb2dVertex
 10
2.393553
 20
21.771053
 30
0.0
 42
0.091655
  0
VERTEX
  5
A2
100
AcDbEntity
  8
C1
100
AcDbVertex
100
AcDb2dVertex
 10
2.457761
 20
21.673711
 30
0.0
 42
0.086179
  0
VERTEX
  5
A3
100
AcDbEntity
  8
C1
100
AcDbVertex
100
AcDb2dVertex
 10
2.546249
 20
21.608791
 30
0.0
 42
0.018198
  0
VERTEX
  5
A4
100
AcDbEntity
  8
C1
100
AcDbVertex
100
AcDb2dVertex
 10
2.567516
 20
21.599175
 30
0.0
 42
0.009139
  0
VERTEX
  5
A5
100
AcDbEntity
  8
C1
100
AcDbVertex
100
AcDb2dVertex
 10
2.605738
 20
21.53373
 30
0.0
 42
0.0074
  0
VERTEX
  5
A6
100
AcDbEntity
  8
C1
100
AcDbVertex
100
AcDb2dVertex
 10
2.638427
 20
21.481786
 30
0.0
 42
0.057382
  0
VERTEX
  5
A7
100
AcDbEntity
  8
C1
100
AcDbVertex
100
AcDb2dVertex
 10
2.572663
 20
21.47694
 30
0.0
 42
0.079165
  0
VERTEX
  5
A8
100
AcDbEntity
  8
C1
100
AcDbVertex
100
AcDb2dVertex
 10
2.487337
 20
21.446162
 30
0.0
 42
0.049946
  0
VERTEX
  5
A9
100
AcDbEntity
  8
C1
100
AcDbVertex
100
AcDb2dVertex
 10
2.54577
 20
21.39333
 30
0.0
 42
0.081627
  0
VERTEX
  5
AA
100
AcDbEntity
  8
C1
100
AcDbVertex
100
AcDb2dVertex
 10
2.659939
 20
21.33499
 30
0.0
 42
0.063043
  0
VERTEX
  5
AB
100
AcDbEntity
  8
C1
100
AcDbVertex
100
AcDb2dVertex
 10
2.757557
 20
21.316864
 30
0.0
 42
0.043721
  0
VERTEX
  5
AC
100
AcDbEntity
  8
C1
100
AcDbVertex
100
AcDb2dVertex
 10
3.007426
 20
21.055035
 30
0.0
 42
0.001369
  0
VERTEX
  5
AD
100
AcDbEntity
  8
C1
100
AcDbVertex
100
AcDb2dVertex
 10
3.015975
 20
21.047558
 30
0.0
 42
0.047738
  0
VERTEX
  5
AE
100
AcDbEntity
  8
C1
100
AcDbVertex
100
AcDb2dVertex
 10
2.959422
 20
21.064256
 30
0.0
 42
0.090702
  0
VERTEX
  5
AF
100
AcDbEntity
  8
C1
100
AcDbVertex
100
AcDb2dVertex
 10
2.848053
 20
21.06546
 30
0.0
 42
0.113595
  0
VERTEX
  5
B0
100
AcDbEntity
  8
C1
100
AcDbVertex
100
AcDb2dVertex
 10
2.884245
 20
20.948249
 30
0.0
 42
0.133336
  0
VERTEX
  5
B1
100
AcDbEntity
  8
C1
100
AcDbVertex
100
AcDb2dVertex
 10
2.986122
 20
20.847471
 30
0.0
 42
0.10996
  0
VERTEX
  5
B2
100
AcDbEntity
  8
C1
100
AcDbVertex
100
AcDb2dVertex
 10
3.099802
 20
20.812825
 30
0.0
 42
0.058095
  0
VERTEX
  5
B3
100
AcDbEntity
  8
C1
100
AcDbVertex
100
AcDb2dVertex
 10
3.163086
 20
20.815311
 30
0.0
  0
VERTEX
  5
B4
100
AcDbEntity
  8
C1
100
AcDbVertex
100
AcDb2dVertex
 10
3.231358
 20
20.78368
 30
0.0
 42
0.039674
  0
VERTEX
  5
B5
100
AcDbEntity
  8
C1
100
AcDbVertex
100
AcDb2dVertex
 10
3.119958
 20
20.789183
 30
0.0
 42
0.026836
  0
VERTEX
  5
B6
100
AcDbEntity
  8
C1
100
AcDbVertex
100
AcDb2dVertex
 10
2.95957
 20
20.775742
 30
0.0
 42
-0.01801
  0
VERTEX
  5
B7
100
AcDbEntity
  8
C1
100
AcDbVertex
100
AcDb2dVertex
 10
2.87312
 20
20.871225
 30
0.0
 42
0.085344
  0
VERTEX
  5
B8
100
AcDbEntity
  8
C1
100
AcDbVertex
100
AcDb2dVertex
 10
2.84699
 20
20.960545
 30
0.0
 42
0.126302
  0
VERTEX
  5
B9
100
AcDbEntity
  8
C1
100
AcDbVertex
100
AcDb2dVertex
 10
2.75838
 20
21.064443
 30
0.0
 42
0.088838
  0
VERTEX
  5
BA
100
AcDbEntity
  8
C1
100
AcDbVertex
100
AcDb2dVertex
 10
2.670628
 20
21.105345
 30
0.0
 42
0.054196
  0
VERTEX
  5
BB
100
AcDbEntity
  8
C1
100
AcDbVertex
100
AcDb2dVertex
 10
2.611946
 20
21.114254
 30
0.0
 42
0.066107
  0
VERTEX
  5
BC
100
AcDbEntity
  8
C1
100
AcDbVertex
100
AcDb2dVertex
 10
2.634329
 20
21.032831
 30
0.0
 42
0.091655
  0
VERTEX
  5
BD
100
AcDbEntity
  8
C1
100
AcDbVertex
100
AcDb2dVertex
 10
2.698537
 20
20.935489
 30
0.0
 42
0.086179
  0
VERTEX
  5
BE
100
AcDbEntity
  8
C1
100
AcDbVertex
100
AcDb2dVertex
 10
2.787025
 20
20.870568
 30
0.0
 42
0.012226
  0
VERTEX
  5
BF
100
AcDbEntity
  8
C1
100
AcDbVertex
100
AcDb2dVertex
 10
2.801237
 20
20.863937
 30
0.0
 42
0.00536
  0
VERTEX
  5
C0
100
AcDbEntity
  8
C1
100
AcDbVertex
100
AcDb2dVertex
 10
2.811426
 20
20.849797
 30
0.0
 42
0.013922
  0
VERTEX
  5
C1
100
AcDbEntity
  8
C1
100
AcDbVertex
100
AcDb2dVertex
 10
2.883938
 20
20.762322
 30
0.0
 42
0.008304
  0
VERTEX
  5
C2
100
AcDbEntity
  8
C1
100
AcDbVertex
100
AcDb2dVertex
 10
2.800372
 20
20.744907
 30
0.0
 42
-0.027005
  0
VERTEX
  5
C3
100
AcDbEntity
  8
C1
100
AcDbVertex
100
AcDb2dVertex
 10
2.685555
 20
20.809215
 30
0.0
 42
-0.022142
  0
VERTEX
  5
C4
100
AcDbEntity
  8
C1
100
AcDbVertex
100
AcDb2dVertex
 10
2.293618
 20
21.082464
 30
0.0
 42
-0.038575
  0
VERTEX
  5
C5
100
AcDbEntity
  8
C1
100
AcDbVertex
100
AcDb2dVertex
 10
2.089095
 20
21.265574
 30
0.0
 42
-0.05435
  0
VERTEX
  5
C6
100
AcDbEntity
  8
C1
100
AcDbVertex
100
AcDb2dVertex
 10
1.817614
 20
21.6191
 30
0.0
 42
-0.057598
  0
VERTEX
  5
C7
100
AcDbEntity
  8
C1
100
AcDbVertex
100
AcDb2dVertex
 10
1.641751
 20
22.001338
 30
0.0
 42
-0.034844
  0
VERTEX
  5
C8
100
AcDbEntity
  8
C1
100
AcDbVertex
100
AcDb2dVertex
 10
1.599431
 20
22.16954
 30
0.0
 42
-0.065412
  0
VERTEX
  5
C9
100
AcDbEntity
  8
C1
100
AcDbVertex
100
AcDb2dVertex
 10
1.595152
 20
22.262115
 30
0.0
 42
-0.135798
  0
VERTEX
  5
CA
100
AcDbEntity
  8
C1
100
AcDbVertex
100
AcDb2dVertex
 10
1.627386
 20
22.349227
 30
0.0
 42
-0.06248
  0
VERTEX
  5
CB
100
AcDbEntity
  8
C1
100
AcDbVertex
100
AcDb2dVertex
 10
1.762907
 20
22.494951
 30
0.0
 42
-0.119486
  0
VERTEX
  5
CC
100
AcDbEntity
  8
C1
100
AcDbVertex
100
AcDb2dVertex
 10
1.92706
 20
22.57608
 30
0.0
 42
-0.041715
  0
SEQEND
  5
CD
100
AcDbEntity
  8
C1
  0
INSERT
  5
CE
100
AcDbEntity
  8
CT1
100
AcDbBlockReference
  2
S_OFF
 10
2.302111
 20
22.55542
 30
0.0
 41
-0.467277
 42
0.467277
 43
0.467277
 50
90.0
  0
INSERT
  5
CF
100
AcDbEntity
  8
CT1
100
AcDbBlockReference
  2
P_ON
 10
2.832757
 20
21.312202
 30
0.0
 41
-0.467277
 42
0.467277
 43
0.467277
 50
90.0
  0
POLYLINE
  5
D0
100
AcDbEntity
  8
C1
100
AcDb2dPolyline
 66
     1
 10
0.0
 20
0.0
 30
0.0
 70
     1
  0
VERTEX
  5
D1
100
AcDbEntity
  8
C1
100
AcDbVertex
100
AcDb2dVertex
 10
2.802929
 20
21.333342
 30
0.0
  0
VERTEX
  5
D2
100
AcDbEntity
  8
C1
100
AcDbVertex
100
AcDb2dVertex
 10
2.819435
 20
21.33469
 30
0.0
 42
-0.010648
  0
VERTEX
  5
D3
100
AcDbEntity
  8
C1
100
AcDbVertex
100
AcDb2dVertex
 10
2.934445
 20
21.277444
 30
0.0
 42
-0.015273
  0
VERTEX
  5
D4
100
AcDbEntity
  8
C1
100
AcDbVertex
100
AcDb2dVertex
 10
3.094915
 20
21.186907
 30
0.0
 42
0.020286
  0
VERTEX
  5
D5
100
AcDbEntity
  8
C1
100
AcDbVertex
100
AcDb2dVertex
 10
3.102313
 20
21.161858
 30
0.0
 42
0.003793
  0
VERTEX
  5
D6
100
AcDbEntity
  8
C1
100
AcDbVertex
100
AcDb2dVertex
 10
3.157568
 20
21.003303
 30
0.0
 42
0.005586
  0
VERTEX
  5
D7
100
AcDbEntity
  8
C1
100
AcDbVertex
100
AcDb2dVertex
 10
3.163523
 20
20.987195
 30
0.0
 42
-0.019998
  0
VERTEX
  5
D8
100
AcDbEntity
  8
C1
100
AcDbVertex
100
AcDb2dVertex
 10
3.037585
 20
21.089326
 30
0.0
 42
-0.04181
  0
SEQEND
  5
D9
100
AcDbEntity
  8
C1
  0
INSERT
  5
DA
100
AcDbEntity
  8
CT1
100
AcDbBlockReference
  2
S_OFF
 10
2.517279
 20
21.299687
 30
0.0
 41
-0.467277
 42
0.467277
 43
0.467277
 50
90.0
  0
INSERT
  5
DB
100
AcDbEntity
  8
CT1
100
AcDbBlockReference
  2
P_ON
 10
3.181705
 20
21.162644
 30
0.0
 41
-0.467277
 42
0.467277
 43
0.467277
 50
90.0
  0
POLYLINE
  5
DC
100
AcDbEntity
  8
C1
100
AcDb2dPolyline
 66
     1
 10
0.0
 20
0.0
 30
0.0
 70
     1
  0
VERTEX
  5
DD
100
AcDbEntity
  8
C1
100
AcDbVertex
100
AcDb2dVertex
 10
3.174338
 20
21.155824
 30
0.0
  0
VERTEX
  5
DE
100
AcDbEntity
  8
C1
100
AcDbVertex
100
AcDb2dVertex
 10
3.168814
 20
21.17302
 30
0.0
 42
-0.122501
  0
VERTEX
  5
DF
100
AcDbEntity
  8
C1
100
AcDbVertex
100
AcDb2dVertex
 10
3.15056
 20
21.458134
 30
0.0
 42
-0.051051
  0
VERTEX
  5
E0
100
AcDbEntity
  8
C1
100
AcDbVertex
100
AcDb2dVertex
 10
3.205771
 20
21.648792
 30
0.0
 42
-0.033884
  0
VERTEX
  5
E1
100
AcDbEntity
  8
C1
100
AcDbVertex
100
AcDb2dVertex
 10
3.229547
 20
21.740377
 30
0.0
 42
-0.079113
  0
VERTEX
  5
E2
100
AcDbEntity
  8
C1
100
AcDbVertex
100
AcDb2dVertex
 10
3.307937
 20
21.891079
 30
0.0
 42
-0.03698
  0
VERTEX
  5
E3
100
AcDbEntity
  8
C1
100
AcDbVertex
100
AcDb2dVertex
 10
3.424185
 20
22.025923
 30
0.0
 42
-0.097322
  0
VERTEX
  5
E4
100
AcDbEntity
  8
C1
100
AcDbVertex
100
AcDb2dVertex
 10
3.476297
 20
22.060919
 30
0.0
 42
-0.099661
  0
VERTEX
  5
E5
100
AcDbEntity
  8
C1
100
AcDbVertex
100
AcDb2dVertex
 10
3.547557
 20
22.075265
 30
0.0
 42
-0.19211
  0
VERTEX
  5
E6
100
AcDbEntity
  8
C1
100
AcDbVertex
100
AcDb2dVertex
 10
3.575388
 20
22.064162
 30
0.0
 42
-0.270466
  0
VERTEX
  5
E7
100
AcDbEntity
  8
C1
100
AcDbVertex
100
AcDb2dVertex
 10
3.594223
 20
21.999471
 30
0.0
 42
-0.051609
  0
VERTEX
  5
E8
100
AcDbEntity
  8
C1
100
AcDbVertex
100
AcDb2dVertex
 10
3.45508
 20
21.616034
 30
0.0
 42
-0.008119
  0
VERTEX
  5
E9
100
AcDbEntity
  8
C1
100
AcDbVertex
100
AcDb2dVertex
 10
3.418972
 20
21.544501
 30
0.0
 42
0.013114
  0
VERTEX
  5
EA
100
AcDbEntity
  8
C1
100
AcDbVertex
100
AcDb2dVertex
 10
3.39653
 20
21.498917
 30
0.0
 42
0.087173
  0
VERTEX
  5
EB
100
AcDbEntity
  8
C1
100
AcDbVertex
100
AcDb2dVertex
 10
3.36659
 20
21.385155
 30
0.0
 42
-0.075545
  0
VERTEX
  5
EC
100
AcDbEntity
  8
C1
100
AcDbVertex
100
AcDb2dVertex
 10
3.337818
 20
21.264579
 30
0.0
 42
-0.149631
  0
VERTEX
  5
ED
100
AcDbEntity
  8
C1
100
AcDbVertex
100
AcDb2dVertex
 10
3.294202
 20
21.210874
 30
0.0
 42
-0.05169
  0
SEQEND
  5
EE
100
AcDbEntity
  8
C1
  0
INSERT
  5
EF
100
AcDbEntity
  8
CT1
100
AcDbBlockReference
  2
S_OFF
 10
3.215511
 20
21.437962
 30
0.0
 41
-0.467277
 42
0.467277
 43
0.467277
 50
90.0
  0
INSERT
  5
F0
100
AcDbEntity
  8
CT1
100
AcDbBlockReference
  2
P_ON
 10
3.197315
 20
21.077468
 30
0.0
 41
-0.467277
 42
0.467277
 43
0.467277
 50
90.0
  0
POLYLINE
  5
F1
100
AcDbEntity
  8
C1
100
AcDb2dPolyline
 66
     1
 10
0.0
 20
0.0
 30
0.0
 70
     1
  0
VERTEX
  5
F2
100
AcDbEntity
  8
C1
100
AcDbVertex
100
AcDb2dVertex
 10
3.179009
 20
21.088101
 30
0.0
  0
VERTEX
  5
F3
100
AcDbEntity
  8
C1
100
AcDbVertex
100
AcDb2dVertex
 10
3.329202
 20
21.155078
 30
0.0
 42
0.152503
  0
VERTEX
  5
F4
100
AcDbEntity
  8
C1
100
AcDbVertex
100
AcDb2dVertex
 10
3.398841
 20
21.239848
 30
0.0
 42
0.075545
  0
VERTEX
  5
F5
100
AcDbEntity
  8
C1
100
AcDbVertex
100
AcDb2dVertex
 10
3.432205
 20
21.379668
 30
0.0
 42
-0.087173
  0
VERTEX
  5
F6
100
AcDbEntity
  8
C1
100
AcDbVertex
100
AcDb2dVertex
 10
3.456345
 20
21.471393
 30
0.0
 42
-0.013114
  0
VERTEX
  5
F7
100
AcDbEntity
  8
C1
100
AcDbVertex
100
AcDb2dVertex
 10
3.477262
 20
21.51388
 30
0.0
 42
0.008119
  0
VERTEX
  5
F8
100
AcDbEntity
  8
C1
100
AcDbVertex
100
AcDb2dVertex
 10
3.514334
 20
21.587321
 30
0.0
 42
0.038971
  0
VERTEX
  5
F9
100
AcDbEntity
  8
C1
100
AcDbVertex
100
AcDb2dVertex
 10
3.630538
 20
21.883991
 30
0.0
 42
-0.011896
  0
VERTEX
  5
FA
100
AcDbEntity
  8
C1
100
AcDbVertex
100
AcDb2dVertex
 10
3.704703
 20
21.809367
 30
0.0
 42
-0.085967
  0
VERTEX
  5
FB
100
AcDbEntity
  8
C1
100
AcDbVertex
100
AcDb2dVertex
 10
3.820375
 20
21.608844
 30
0.0
 42
-0.088156
  0
VERTEX
  5
FC
100
AcDbEntity
  8
C1
100
AcDbVertex
100
AcDb2dVertex
 10
3.861891
 20
21.375206
 30
0.0
 42
-0.019576
  0
VERTEX
  5
FD
100
AcDbEntity
  8
C1
100
AcDbVertex
100
AcDb2dVertex
 10
3.859814
 20
21.322162
 30
0.0
 42
-0.012104
  0
VERTEX
  5
FE
100
AcDbEntity
  8
C1
100
AcDbVertex
100
AcDb2dVertex
 10
3.900506
 20
21.288957
 30
0.0
 42
-0.062783
  0
VERTEX
  5
FF
100
AcDbEntity
  8
C1
100
AcDbVertex
100
AcDb2dVertex
 10
4.08285
 20
21.087956
 30
0.0
 42
-0.051665
  0
VERTEX
  5
100
100
AcDbEntity
  8
C1
100
AcDbVertex
100
AcDb2dVertex
 10
4.191645
 20
20.8926
 30
0.0
 42
-0.037707
  0
VERTEX
  5
101
100
AcDbEntity
  8
C1
100
AcDbVertex
100
AcDb2dVertex
 10
4.244519
 20
20.73799
 30
0.0
 42
-0.080192
  0
VERTEX
  5
102
100
AcDbEntity
  8
C1
100
AcDbVertex
100
AcDb2dVertex
 10
4.205535
 20
20.613556
 30
0.0
 42
-0.125489
  0
VERTEX
  5
103
100
AcDbEntity
  8
C1
100
AcDbVertex
100
AcDb2dVertex
 10
4.073238
 20
20.460668
 30
0.0
 42
-0.153131
  0
VERTEX
  5
104
100
AcDbEntity
  8
C1
100
AcDbVertex
100
AcDb2dVertex
 10
3.839599
 20
20.387396
 30
0.0
 42
-0.074291
  0
VERTEX
  5
105
100
AcDbEntity
  8
C1
100
AcDbVertex
100
AcDb2dVertex
 10
3.720016
 20
20.405262
 30
0.0
 42
-0.004838
  0
VERTEX
  5
106
100
AcDbEntity
  8
C1
100
AcDbVertex
100
AcDb2dVertex
 10
3.697108
 20
20.41644
 30
0.0
 42
-0.060063
  0
VERTEX
  5
107
100
AcDbEntity
  8
C1
100
AcDbVertex
100
AcDb2dVertex
 10
3.620378
 20
20.46711
 30
0.0
 42
-0.039661
  0
VERTEX
  5
108
100
AcDbEntity
  8
C1
100
AcDbVertex
100
AcDb2dVertex
 10
3.415428
 20
20.671035
 30
0.0
 42
-0.045645
  0
VERTEX
  5
109
100
AcDbEntity
  8
C1
100
AcDbVertex
100
AcDb2dVertex
 10
3.26992
 20
20.875978
 30
0.0
 42
-0.036433
  0
VERTEX
  5
10A
100
AcDbEntity
  8
C1
100
AcDbVertex
100
AcDb2dVertex
 10
3.22394
 20
20.970359
 30
0.0
 42
-0.005041
  0
SEQEND
  5
10B
100
AcDbEntity
  8
C1
  0
INSERT
  5
10C
100
AcDbEntity
  8
CT1
100
AcDbBlockReference
  2
S_OFF
 10
3.495361
 20
21.043451
 30
0.0
 41
-0.467277
 42
0.467277
 43
0.467277
 50
90.0
  0
INSERT
  5
10D
100
AcDbEntity
  8
CT1
100
AcDbBlockReference
  2
P_ON
 10
3.585463
 20
20.391899
 30
0.0
 41
-0.467277
 42
0.467277
 43
0.467277
 50
90.0
  0
POLYLINE
  5
10E
100
AcDbEntity
  8
C1
100
AcDb2dPolyline
 66
     1
 10
0.0
 20
0.0
 30
0.0
 70
     1
  0
VERTEX
  5
10F
100
AcDbEntity
  8
C1
100
AcDbVertex
100
AcDb2dVertex
 10
3.579354
 20
20.422609
 30
0.0
 42
0.062131
  0
VERTEX
  5
110
100
AcDbEntity
  8
C1
100
AcDbVertex
100
AcDb2dVertex
 10
3.652812
 20
20.365475
 30
0.0
 42
0.037733
  0
VERTEX
  5
111
100
AcDbEntity
  8
C1
100
AcDbVertex
100
AcDb2dVertex
 10
3.786124
 20
20.327386
 30
0.0
 42
0.052506
  0
VERTEX
  5
112
100
AcDbEntity
  8
C1
100
AcDbVertex
100
AcDb2dVertex
 10
3.982011
 20
20.34643
 30
0.0
 42
0.024148
  0
VERTEX
  5
113
100
AcDbEntity
  8
C1
100
AcDbVertex
100
AcDb2dVertex
 10
4.14253
 20
20.433492
 30
0.0
 42
0.047611
  0
VERTEX
  5
114
100
AcDbEntity
  8
C1
100
AcDbVertex
100
AcDb2dVertex
 10
4.270401
 20
20.583128
 30
0.0
 42
-0.044996
  0
VERTEX
  5
115
100
AcDbEntity
  8
C1
100
AcDbVertex
100
AcDb2dVertex
 10
4.210547
 20
20.460698
 30
0.0
 42
-0.007046
  0
VERTEX
  5
116
100
AcDbEntity
  8
C1
100
AcDbVertex
100
AcDb2dVertex
 10
4.118044
 20
20.340989
 30
0.0
 42
0.033767
  0
VERTEX
  5
117
100
AcDbEntity
  8
C1
100
AcDbVertex
100
AcDb2dVertex
 10
3.845978
 20
20.063482
 30
0.0
 42
0.016719
  0
VERTEX
  5
118
100
AcDbEntity
  8
C1
100
AcDbVertex
100
AcDb2dVertex
 10
3.775241
 20
19.941052
 30
0.0
 42
-0.002661
  0
VERTEX
  5
119
100
AcDbEntity
  8
C1
100
AcDbVertex
100
AcDb2dVertex
 10
3.731711
 20
20.006348
 30
0.0
 42
-0.002432
  0
VERTEX
  5
11A
100
AcDbEntity
  8
C1
100
AcDbVertex
100
AcDb2dVertex
 10
3.652812
 20
20.128778
 30
0.0
 42
-0.024277
  0
VERTEX
  5
11B
100
AcDbEntity
  8
C1
100
AcDbVertex
100
AcDb2dVertex
 10
3.584795
 20
20.332827
 30
0.0
 42
-0.019195
  0
SEQEND
  5
11C
100
AcDbEntity
  8
C1
  0
INSERT
  5
11D
100
AcDbEntity
  8
CT1
100
AcDbBlockReference
  2
S_OFF
 10
3.707192
 20
20.291354
 30
0.0
 41
-0.467277
 42
0.467277
 43
0.467277
 50
90.0
  0
INSERT
  5
11E
100
AcDbEntity
  8
CT1
100
AcDbBlockReference
  2
P_ON
 10
2.3608
 20
19.377954
 30
0.0
 41
-0.467277
 42
0.467277
 43
0.467277
 50
90.0
  0
POLYLINE
  5
11F
100
AcDbEntity
  8
C1
100
AcDb2dPolyline
 66
     1
 10
0.0
 20
0.0
 30
0.0
 70
     1
  0
VERTEX
  5
120
100
AcDbEntity
  8
C1
100
AcDbVertex
100
AcDb2dVertex
 10
2.317142
 20
19.383919
 30
0.0
  0
VERTEX
  5
121
100
AcDbEntity
  8
C1
100
AcDbVertex
100
AcDb2dVertex
 10
2.275945
 20
19.253825
 30
0.0
 42
-0.025041
  0
VERTEX
  5
122
100
AcDbEntity
  8
C1
100
AcDbVertex
100
AcDb2dVertex
 10
2.252392
 20
19.193463
 30
0.0
 42
-0.10125
  0
VERTEX
  5
123
100
AcDbEntity
  8
C1
100
AcDbVertex
100
AcDb2dVertex
 10
2.210027
 20
19.134611
 30
0.0
 42
-0.118633
  0
VERTEX
  5
124
100
AcDbEntity
  8
C1
100
AcDbVertex
100
AcDb2dVertex
 10
2.155776
 20
19.104343
 30
0.0
 42
-0.168387
  0
VERTEX
  5
125
100
AcDbEntity
  8
C1
100
AcDbVertex
100
AcDb2dVertex
 10
2.105156
 20
19.107429
 30
0.0
 42
-0.16587
  0
VERTEX
  5
126
100
AcDbEntity
  8
C1
100
AcDbVertex
100
AcDb2dVertex
 10
2.066593
 20
19.141476
 30
0.0
 42
-0.11232
  0
VERTEX
  5
127
100
AcDbEntity
  8
C1
100
AcDbVertex
100
AcDb2dVertex
 10
2.053072
 20
19.185962
 30
0.0
 42
-0.031581
  0
VERTEX
  5
128
100
AcDbEntity
  8
C1
100
AcDbVertex
100
AcDb2dVertex
 10
2.051729
 20
19.349425
 30
0.0
 42
-0.008108
  0
VERTEX
  5
129
100
AcDbEntity
  8
C1
100
AcDbVertex
100
AcDb2dVertex
 10
2.053392
 20
19.372756
 30
0.0
 42
-0.019512
  0
VERTEX
  5
12A
100
AcDbEntity
  8
C1
100
AcDbVertex
100
AcDb2dVertex
 10
2.032232
 20
19.452141
 30
0.0
 42
-0.068342
  0
VERTEX
  5
12B
100
AcDbEntity
  8
C1
100
AcDbVertex
100
AcDb2dVertex
 10
2.022001
 20
19.572226
 30
0.0
 42
-0.03906
  0
VERTEX
  5
12C
100
AcDbEntity
  8
C1
100
AcDbVertex
100
AcDb2dVertex
 10
2.047411
 20
19.767257
 30
0.0
 42
-0.032395
  0
VERTEX
  5
12D
100
AcDbEntity
  8
C1
100
AcDbVertex
100
AcDb2dVertex
 10
2.111185
 20
19.99555
 30
0.0
 42
-0.072287
  0
VERTEX
  5
12E
100
AcDbEntity
  8
C1
100
AcDbVertex
100
AcDb2dVertex
 10
2.259063
 20
20.278563
 30
0.0
 42
-0.066503
  0
VERTEX
  5
12F
100
AcDbEntity
  8
C1
100
AcDbVertex
100
AcDb2dVertex
 10
2.497646
 20
20.530274
 30
0.0
 42
-0.095131
  0
VERTEX
  5
130
100
AcDbEntity
  8
C1
100
AcDbVertex
100
AcDb2dVertex
 10
2.740955
 20
20.659947
 30
0.0
 42
-0.067609
  0
VERTEX
  5
131
100
AcDbEntity
  8
C1
100
AcDbVertex
100
AcDb2dVertex
 10
3.12193
 20
20.723369
 30
0.0
 42
-0.07313
  0
VERTEX
  5
132
100
AcDbEntity
  8
C1
100
AcDbVertex
100
AcDb2dVertex
 10
3.306341
 20
20.70187
 30
0.0
 42
0.016342
  0
VERTEX
  5
133
100
AcDbEntity
  8
C1
100
AcDbVertex
100
AcDb2dVertex
 10
3.365436
 20
20.628184
 30
0.0
 42
0.028862
  0
VERTEX
  5
134
100
AcDbEntity
  8
C1
100
AcDbVertex
100
AcDb2dVertex
 10
3.516721
 20
20.471018
 30
0.0
 42
0.016167
  0
VERTEX
  5
135
100
AcDbEntity
  8
C1
100
AcDbVertex
100
AcDb2dVertex
 10
3.515848
 20
20.409229
 30
0.0
 42
0.067444
  0
VERTEX
  5
136
100
AcDbEntity
  8
C1
100
AcDbVertex
100
AcDb2dVertex
 10
3.534739
 20
20.286623
 30
0.0
 42
0.002684
  0
VERTEX
  5
137
100
AcDbEntity
  8
C1
100
AcDbVertex
100
AcDb2dVertex
 10
3.545519
 20
20.25088
 30
0.0
 42
-0.039488
  0
VERTEX
  5
138
100
AcDbEntity
  8
C1
100
AcDbVertex
100
AcDb2dVertex
 10
3.505923
 20
20.128083
 30
0.0
 42
-0.094612
  0
VERTEX
  5
139
100
AcDbEntity
  8
C1
100
AcDbVertex
100
AcDb2dVertex
 10
3.337874
 20
19.871318
 30
0.0
 42
-0.119685
  0
VERTEX
  5
13A
100
AcDbEntity
  8
C1
100
AcDbVertex
100
AcDb2dVertex
 10
3.011618
 20
19.664778
 30
0.0
 42
-0.081807
  0
VERTEX
  5
13B
100
AcDbEntity
  8
C1
100
AcDbVertex
100
AcDb2dVertex
 10
2.749204
 20
19.621651
 30
0.0
 42
-0.001336
  0
VERTEX
  5
13C
100
AcDbEntity
  8
C1
100
AcDbVertex
100
AcDb2dVertex
 10
2.746221
 20
19.618654
 30
0.0
 42
-0.08432
  0
VERTEX
  5
13D
100
AcDbEntity
  8
C1
100
AcDbVertex
100
AcDb2dVertex
 10
2.638853
 20
19.542519
 30
0.0
 42
-0.030714
  0
VERTEX
  5
13E
100
AcDbEntity
  8
C1
100
AcDbVertex
100
AcDb2dVertex
 10
2.539402
 20
19.50197
 30
0.0
 42
0.030192
  0
VERTEX
  5
13F
100
AcDbEntity
  8
C1
100
AcDbVertex
100
AcDb2dVertex
 10
2.43819
 20
19.460825
 30
0.0
 42
0.054149
  0
VERTEX
  5
140
100
AcDbEntity
  8
C1
100
AcDbVertex
100
AcDb2dVertex
 10
2.328268
 20
19.392723
 30
0.0
 42
0.003282
  0
SEQEND
  5
141
100
AcDbEntity
  8
C1
  0
INSERT
  5
142
100
AcDbEntity
  8
CT1
100
AcDbBlockReference
  2
S_OFF
 10
2.313771
 20
19.865748
 30
0.0
 41
-0.467277
 42
0.467277
 43
0.467277
 50
90.0
  0
INSERT
  5
143
100
AcDbEntity
  8
CT1
100
AcDbBlockReference
  2
P_ON
 10
3.578044
 20
20.094215
 30
0.0
 41
-0.467277
 42
0.467277
 43
0.467277
 50
90.0
  0
POLYLINE
  5
144
100
AcDbEntity
  8
C1
100
AcDb2dPolyline
 66
     1
 10
0.0
 20
0.0
 30
0.0
 70
     1
  0
VERTEX
  5
145
100
AcDbEntity
  8
C1
100
AcDbVertex
100
AcDb2dVertex
 10
3.583189
 20
20.135813
 30
0.0
  0
VERTEX
  5
146
100
AcDbEntity
  8
C1
100
AcDbVertex
100
AcDb2dVertex
 10
3.60036
 20
20.095364
 30
0.0
 42
0.05322
  0
VERTEX
  5
147
100
AcDbEntity
  8
C1
100
AcDbVertex
100
AcDb2dVertex
 10
3.667124
 20
19.98841
 30
0.0
 42
-0.04024
  0
VERTEX
  5
148
100
AcDbEntity
  8
C1
100
AcDbVertex
100
AcDb2dVertex
 10
3.758946
 20
19.84946
 30
0.0
 42
-0.036142
  0
VERTEX
  5
149
100
AcDbEntity
  8
C1
100
AcDbVertex
100
AcDb2dVertex
 10
3.798515
 20
19.763467
 30
0.0
 42
-0.024557
  0
VERTEX
  5
14A
100
AcDbEntity
  8
C1
100
AcDbVertex
100
AcDb2dVertex
 10
3.840973
 20
19.630878
 30
0.0
 42
-0.145408
  0
VERTEX
  5
14B
100
AcDbEntity
  8
C1
100
AcDbVertex
100
AcDb2dVertex
 10
3.836881
 20
19.484741
 30
0.0
 42
-0.106422
  0
VERTEX
  5
14C
100
AcDbEntity
  8
C1
100
AcDbVertex
100
AcDb2dVertex
 10
3.737072
 20
19.313935
 30
0.0
 42
-0.138265
  0
VERTEX
  5
14D
100
AcDbEntity
  8
C1
100
AcDbVertex
100
AcDb2dVertex
 10
3.606356
 20
19.232866
 30
0.0
 42
-0.109835
  0
VERTEX
  5
14E
100
AcDbEntity
  8
C1
100
AcDbVertex
100
AcDb2dVertex
 10
3.414432
 20
19.221038
 30
0.0
 42
-0.118351
  0
VERTEX
  5
14F
100
AcDbEntity
  8
C1
100
AcDbVertex
100
AcDb2dVertex
 10
3.280696
 20
19.276457
 30
0.0
 42
-0.011955
  0
VERTEX
  5
150
100
AcDbEntity
  8
C1
100
AcDbVertex
100
AcDb2dVertex
 10
3.266253
 20
19.28749
 30
0.0
 42
-0.014229
  0
VERTEX
  5
151
100
AcDbEntity
  8
C1
100
AcDbVertex
100
AcDb2dVertex
 10
3.246448
 20
19.283413
 30
0.0
 42
-0.119126
  0
VERTEX
  5
152
100
AcDbEntity
  8
C1
100
AcDbVertex
100
AcDb2dVertex
 10
3.108198
 20
19.292077
 30
0.0
 42
-0.07381
  0
VERTEX
  5
153
100
AcDbEntity
  8
C1
100
AcDbVertex
100
AcDb2dVertex
 10
3.011199
 20
19.338583
 30
0.0
 42
-0.066615
  0
VERTEX
  5
154
100
AcDbEntity
  8
C1
100
AcDbVertex
100
AcDb2dVertex
 10
2.92227
 20
19.417761
 30
0.0
 42
-0.149889
  0
VERTEX
  5
155
100
AcDbEntity
  8
C1
100
AcDbVertex
100
AcDb2dVertex
 10
2.8572
 20
19.566358
 30
0.0
 42
0.03113
  0
VERTEX
  5
156
100
AcDbEntity
  8
C1
100
AcDbVertex
100
AcDb2dVertex
 10
3.031523
 20
19.605926
 30
0.0
 42
0.119685
  0
VERTEX
  5
157
100
AcDbEntity
  8
C1
100
AcDbVertex
100
AcDb2dVertex
 10
3.382554
 20
19.82815
 30
0.0
 42
0.065745
  0
SEQEND
  5
158
100
AcDbEntity
  8
C1
  0
INSERT
  5
159
100
AcDbEntity
  8
CT1
100
AcDbBlockReference
  2
S_OFF
 10
3.490414
 20
19.617576
 30
0.0
 41
-0.467277
 42
0.467277
 43
0.467277
 50
90.0
  0
INSERT
  5
15A
100
AcDbEntity
  8
CT1
100
AcDbBlockReference
  2
P_ON
 10
6.466265
 20
21.798799
 30
0.0
 41
-0.467277
 42
0.467277
 43
0.467277
 50
90.0
  0
POLYLINE
  5
15B
100
AcDbEntity
  8
C1
100
AcDb2dPolyline
 66
     1
 10
0.0
 20
0.0
 30
0.0
  0
VERTEX
  5
15C
100
AcDbEntity
  8
C1
100
AcDbVertex
100
AcDb2dVertex
 10
6.456637
 20
21.81285
 30
0.0
 42
0.025745
  0
VERTEX
  5
15D
100
AcDbEntity
  8
C1
100
AcDbVertex
100
AcDb2dVertex
 10
6.698474
 20
21.785265
 30
0.0
 42
0.001639
  0
VERTEX
  5
15E
100
AcDbEntity
  8
C1
100
AcDbVertex
100
AcDb2dVertex
 10
6.63061
 20
21.637098
 30
0.0
 42
0.002606
  0
VERTEX
  5
15F
100
AcDbEntity
  8
C1
100
AcDbVertex
100
AcDb2dVertex
 10
6.268952
 20
20.829453
 30
0.0
  0
VERTEX
  5
160
100
AcDbEntity
  8
C1
100
AcDbVertex
100
AcDb2dVertex
 10
5.991039
 20
20.778101
 30
0.0
 42
-0.003074
  0
VERTEX
  5
161
100
AcDbEntity
  8
C1
100
AcDbVertex
100
AcDb2dVertex
 10
6.417875
 20
21.733694
 30
0.0
 42
-0.000872
  0
VERTEX
  5
162
100
AcDbEntity
  8
C1
100
AcDbVertex
100
AcDb2dVertex
 10
6.454175
 20
21.813269
 30
0.0
  0
SEQEND
  5
163
100
AcDbEntity
  8
C1
  0
INSERT
  5
164
100
AcDbEntity
  8
CT1
100
AcDbBlockReference
  2
S_OFF
 10
6.453222
 20
21.661454
 30
0.0
 41
-0.467277
 42
0.467277
 43
0.467277
 50
90.0
  0
INSERT
  5
165
100
AcDbEntity
  8
CT1
100
AcDbBlockReference
  2
P_ON
 10
6.07947
 20
22.434756
 30
0.0
 41
-0.467277
 42
0.467277
 43
0.467277
 50
90.0
  0
POLYLINE
  5
166
100
AcDbEntity
  8
C1
100
AcDb2dPolyline
 66
     1
 10
0.0
 20
0.0
 30
0.0
 70
     1
  0
VERTEX
  5
167
100
AcDbEntity
  8
C1
100
AcDbVertex
100
AcDb2dVertex
 10
6.065633
 20
22.448527
 30
0.0
  0
VERTEX
  5
168
100
AcDbEntity
  8
C1
100
AcDbVertex
100
AcDb2dVertex
 10
6.452853
 20
22.27489
 30
0.0
 42
0.099458
  0
VERTEX
  5
169
100
AcDbEntity
  8
C1
100
AcDbVertex
100
AcDb2dVertex
 10
6.894862
 20
22.205079
 30
0.0
 42
0.039389
  0
VERTEX
  5
16A
100
AcDbEntity
  8
C1
100
AcDbVertex
100
AcDb2dVertex
 10
7.164381
 20
22.242147
 30
0.0
 42
0.007736
  0
VERTEX
  5
16B
100
AcDbEntity
  8
C1
100
AcDbVertex
100
AcDb2dVertex
 10
7.202541
 20
22.229012
 30
0.0
 42
0.021243
  0
VERTEX
  5
16C
100
AcDbEntity
  8
C1
100
AcDbVertex
100
AcDb2dVertex
 10
7.064166
 20
22.077822
 30
0.0
 42
0.02094
  0
VERTEX
  5
16D
100
AcDbEntity
  8
C1
100
AcDbVertex
100
AcDb2dVertex
 10
6.9408
 20
21.917819
 30
0.0
 42
0.00874
  0
VERTEX
  5
16E
100
AcDbEntity
  8
C1
100
AcDbVertex
100
AcDb2dVertex
 10
6.893346
 20
21.848076
 30
0.0
 42
-0.015116
  0
VERTEX
  5
16F
100
AcDbEntity
  8
C1
100
AcDbVertex
100
AcDb2dVertex
 10
6.812502
 20
21.846783
 30
0.0
 42
-0.037721
  0
VERTEX
  5
170
100
AcDbEntity
  8
C1
100
AcDbVertex
100
AcDb2dVertex
 10
6.467455
 20
21.877798
 30
0.0
 42
-0.113097
  0
VERTEX
  5
171
100
AcDbEntity
  8
C1
100
AcDbVertex
100
AcDb2dVertex
 10
6.359384
 20
21.922258
 30
0.0
 42
-0.077951
  0
VERTEX
  5
172
100
AcDbEntity
  8
C1
100
AcDbVertex
100
AcDb2dVertex
 10
6.325643
 20
21.955049
 30
0.0
 42
-0.092229
  0
VERTEX
  5
173
100
AcDbEntity
  8
C1
100
AcDbVertex
100
AcDb2dVertex
 10
6.092318
 20
21.925679
 30
0.0
 42
-0.294284
  0
VERTEX
  5
174
100
AcDbEntity
  8
C1
100
AcDbVertex
100
AcDb2dVertex
 10
6.019545
 20
21.978864
 30
0.0
 42
-0.137664
  0
VERTEX
  5
175
100
AcDbEntity
  8
C1
100
AcDbVertex
100
AcDb2dVertex
 10
6.013931
 20
22.038637
 30
0.0
 42
-0.05281
  0
VERTEX
  5
176
100
AcDbEntity
  8
C1
100
AcDbVertex
100
AcDb2dVertex
 10
6.057305
 20
22.186419
 30
0.0
 42
-0.084685
  0
VERTEX
  5
177
100
AcDbEntity
  8
C1
100
AcDbVertex
100
AcDb2dVertex
 10
6.044416
 20
22.261975
 30
0.0
 42
-0.042639
  0
VERTEX
  5
178
100
AcDbEntity
  8
C1
100
AcDbVertex
100
AcDb2dVertex
 10
6.057305
 20
22.412843
 30
0.0
 42
-0.02942
  0
SEQEND
  5
179
100
AcDbEntity
  8
C1
  0
INSERT
  5
17A
100
AcDbEntity
  8
CT1
100
AcDbBlockReference
  2
S_OFF
 10
6.227787
 20
22.226984
 30
0.0
 41
-0.467277
 42
0.467277
 43
0.467277
 50
90.0
  0
INSERT
  5
17B
100
AcDbEntity
  8
CT1
100
AcDbBlockReference
  2
P_ON
 10
7.281716
 20
22.185326
 30
0.0
 41
-0.467277
 42
0.467277
 43
0.467277
 50
90.0
  0
POLYLINE
  5
17C
100
AcDbEntity
  8
C1
100
AcDb2dPolyline
 66
     1
 10
0.0
 20
0.0
 30
0.0
 70
     1
  0
VERTEX
  5
17D
100
AcDbEntity
  8
C1
100
AcDbVertex
100
AcDb2dVertex
 10
7.274432
 20
22.207494
 30
0.0
  0
VERTEX
  5
17E
100
AcDbEntity
  8
C1
100
AcDbVertex
100
AcDb2dVertex
 10
7.64071
 20
22.116693
 30
0.0
 42
0.006782
  0
VERTEX
  5
17F
100
AcDbEntity
  8
C1
100
AcDbVertex
100
AcDb2dVertex
 10
7.889408
 20
22.067272
 30
0.0
 42
0.000231
  0
VERTEX
  5
180
100
AcDbEntity
  8
C1
100
AcDbVertex
100
AcDb2dVertex
 10
8.064052
 20
22.035106
 30
0.0
 42
-0.009271
  0
VERTEX
  5
181
100
AcDbEntity
  8
C1
100
AcDbVertex
100
AcDb2dVertex
 10
7.949786
 20
21.989457
 30
0.0
 42
-0.043943
  0
VERTEX
  5
182
100
AcDbEntity
  8
C1
100
AcDbVertex
100
AcDb2dVertex
 10
7.643219
 20
21.903389
 30
0.0
 42
-0.01335
  0
VERTEX
  5
183
100
AcDbEntity
  8
C1
100
AcDbVertex
100
AcDb2dVertex
 10
7.278915
 20
21.844908
 30
0.0
 42
-0.024298
  0
VERTEX
  5
184
100
AcDbEntity
  8
C1
100
AcDbVertex
100
AcDb2dVertex
 10
7.076821
 20
21.827915
 30
0.0
 42
-0.059599
  0
VERTEX
  5
185
100
AcDbEntity
  8
C1
100
AcDbVertex
100
AcDb2dVertex
 10
6.965226
 20
21.837284
 30
0.0
 42
-0.005506
  0
VERTEX
  5
186
100
AcDbEntity
  8
C1
100
AcDbVertex
100
AcDb2dVertex
 10
6.994582
 20
21.879833
 30
0.0
 42
-0.02094
  0
VERTEX
  5
187
100
AcDbEntity
  8
C1
100
AcDbVertex
100
AcDb2dVertex
 10
7.114581
 20
22.03547
 30
0.0
 42
-0.025026
  0
SEQEND
  5
188
100
AcDbEntity
  8
C1
  0
INSERT
  5
189
100
AcDbEntity
  8
CT1
100
AcDbBlockReference
  2
S_OFF
 10
7.354962
 20
22.096776
 30
0.0
 41
-0.467277
 42
0.467277
 43
0.467277
 50
90.0
  0
INSERT
  5
18A
100
AcDbEntity
  8
CT1
100
AcDbBlockReference
  2
P_ON
 10
5.883862
 20
20.440077
 30
0.0
 41
-0.467277
 42
0.467277
 43
0.467277
 50
90.0
  0
POLYLINE
  5
18B
100
AcDbEntity
  8
C1
100
AcDb2dPolyline
 66
     1
 10
0.0
 20
0.0
 30
0.0
 70
     1
  0
VERTEX
  5
18C
100
AcDbEntity
  8
C1
100
AcDbVertex
100
AcDb2dVertex
 10
5.871602
 20
20.452197
 30
0.0
  0
VERTEX
  5
18D
100
AcDbEntity
  8
C1
100
AcDbVertex
100
AcDb2dVertex
 10
6.153561
 20
20.499108
 30
0.0
 42
-0.000977
  0
VERTEX
  5
18E
100
AcDbEntity
  8
C1
100
AcDbVertex
100
AcDb2dVertex
 10
6.123269
 20
20.417578
 30
0.0
 42
-0.018292
  0
VERTEX
  5
18F
100
AcDbEntity
  8
C1
100
AcDbVertex
100
AcDb2dVertex
 10
5.778861
 20
19.589785
 30
0.0
 42
-0.010259
  0
VERTEX
  5
190
100
AcDbEntity
  8
C1
100
AcDbVertex
100
AcDb2dVertex
 10
5.034805
 20
18.054834
 30
0.0
 42
-0.028379
  0
VERTEX
  5
191
100
AcDbEntity
  8
C1
100
AcDbVertex
100
AcDb2dVertex
 10
4.723593
 20
17.522003
 30
0.0
 42
-0.105397
  0
VERTEX
  5
192
100
AcDbEntity
  8
C1
100
AcDbVertex
100
AcDb2dVertex
 10
4.215118
 20
17.023587
 30
0.0
 42
-0.114704
  0
VERTEX
  5
193
100
AcDbEntity
  8
C1
100
AcDbVertex
100
AcDb2dVertex
 10
3.596418
 20
16.80683
 30
0.0
 42
-0.084652
  0
VERTEX
  5
194
100
AcDbEntity
  8
C1
100
AcDbVertex
100
AcDb2dVertex
 10
3.241004
 20
16.828299
 30
0.0
 42
-0.119111
  0
VERTEX
  5
195
100
AcDbEntity
  8
C1
100
AcDbVertex
100
AcDb2dVertex
 10
3.013397
 20
16.942868
 30
0.0
 42
-0.137253
  0
VERTEX
  5
196
100
AcDbEntity
  8
C1
100
AcDbVertex
100
AcDb2dVertex
 10
2.886076
 20
17.131167
 30
0.0
 42
-0.043898
  0
VERTEX
  5
197
100
AcDbEntity
  8
C1
100
AcDbVertex
100
AcDb2dVertex
 10
2.861249
 20
17.235315
 30
0.0
 42
-0.108785
  0
VERTEX
  5
198
100
AcDbEntity
  8
C1
100
AcDbVertex
100
AcDb2dVertex
 10
2.984774
 20
17.381566
 30
0.0
 42
-0.032984
  0
VERTEX
  5
199
100
AcDbEntity
  8
C1
100
AcDbVertex
100
AcDb2dVertex
 10
3.033627
 20
17.414048
 30
0.0
 42
0.066282
  0
VERTEX
  5
19A
100
AcDbEntity
  8
C1
100
AcDbVertex
100
AcDb2dVertex
 10
3.065947
 20
17.306522
 30
0.0
 42
0.151632
  0
VERTEX
  5
19B
100
AcDbEntity
  8
C1
100
AcDbVertex
100
AcDb2dVertex
 10
3.174699
 20
17.183851
 30
0.0
 42
0.105424
  0
VERTEX
  5
19C
100
AcDbEntity
  8
C1
100
AcDbVertex
100
AcDb2dVertex
 10
3.312463
 20
17.135981
 30
0.0
 42
0.060827
  0
VERTEX
  5
19D
100
AcDbEntity
  8
C1
100
AcDbVertex
100
AcDb2dVertex
 10
3.56338
 20
17.135265
 30
0.0
 42
0.117007
  0
VERTEX
  5
19E
100
AcDbEntity
  8
C1
100
AcDbVertex
100
AcDb2dVertex
 10
4.139157
 20
17.346491
 30
0.0
 42
0.106526
  0
VERTEX
  5
19F
100
AcDbEntity
  8
C1
100
AcDbVertex
100
AcDb2dVertex
 10
4.608932
 20
17.827117
 30
0.0
 42
0.024105
  0
VERTEX
  5
1A0
100
AcDbEntity
  8
C1
100
AcDbVertex
100
AcDb2dVertex
 10
4.85072
 20
18.25582
 30
0.0
 42
0.007511
  0
VERTEX
  5
1A1
100
AcDbEntity
  8
C1
100
AcDbVertex
100
AcDb2dVertex
 10
5.537879
 20
19.677238
 30
0.0
 42
0.014327
  0
SEQEND
  5
1A2
100
AcDbEntity
  8
C1
  0
INSERT
  5
1A3
100
AcDbEntity
  8
CT1
100
AcDbBlockReference
  2
S_OFF
 10
5.895465
 20
20.365203
 30
0.0
 41
-0.467277
 42
0.467277
 43
0.467277
 50
90.0
  0
INSERT
  5
1A4
100
AcDbEntity
  8
CT1
100
AcDbBlockReference
  2
P_ON
 10
3.619649
 20
17.918034
 30
0.0
 41
-0.467277
 42
0.467277
 43
0.467277
 50
90.0
  0
POLYLINE
  5
1A5
100
AcDbEntity
  8
C1
100
AcDb2dPolyline
 66
     1
 10
0.0
 20
0.0
 30
0.0
 70
     1
  0
VERTEX
  5
1A6
100
AcDbEntity
  8
C1
100
AcDbVertex
100
AcDb2dVertex
 10
3.648103
 20
17.918047
 30
0.0
  0
VERTEX
  5
1A7
100
AcDbEntity
  8
C1
100
AcDbVertex
100
AcDb2dVertex
 10
3.648103
 20
17.354556
 30
0.0
 42
0.050721
  0
VERTEX
  5
1A8
100
AcDbEntity
  8
C1
100
AcDbVertex
100
AcDb2dVertex
 10
3.574297
 20
17.426983
 30
0.0
 42
0.117957
  0
VERTEX
  5
1A9
100
AcDbEntity
  8
C1
100
AcDbVertex
100
AcDb2dVertex
 10
3.359134
 20
17.528221
 30
0.0
 42
0.217767
  0
VERTEX
  5
1AA
100
AcDbEntity
  8
C1
100
AcDbVertex
100
AcDb2dVertex
 10
2.944784
 20
17.433874
 30
0.0
 42
0.060736
  0
VERTEX
  5
1AB
100
AcDbEntity
  8
C1
100
AcDbVertex
100
AcDb2dVertex
 10
2.856337
 20
17.347413
 30
0.0
 42
-0.019885
  0
VERTEX
  5
1AC
100
AcDbEntity
  8
C1
100
AcDbVertex
100
AcDb2dVertex
 10
2.858097
 20
17.385851
 30
0.0
 42
-0.129445
  0
VERTEX
  5
1AD
100
AcDbEntity
  8
C1
100
AcDbVertex
100
AcDb2dVertex
 10
2.979862
 20
17.726836
 30
0.0
 42
-0.14719
  0
VERTEX
  5
1AE
100
AcDbEntity
  8
C1
100
AcDbVertex
100
AcDb2dVertex
 10
3.260236
 20
17.952671
 30
0.0
 42
-0.179863
  0
VERTEX
  5
1AF
100
AcDbEntity
  8
C1
100
AcDbVertex
100
AcDb2dVertex
 10
3.5578
 20
17.961562
 30
0.0
 42
-0.061573
  0
SEQEND
  5
1B0
100
AcDbEntity
  8
C1
  0
INSERT
  5
1B1
100
AcDbEntity
  8
CT1
100
AcDbBlockReference
  2
S_OFF
 10
3.336002
 20
17.80574
 30
0.0
 41
-0.467277
 42
0.467277
 43
0.467277
 50
90.0
  0
INSERT
  5
1B2
100
AcDbEntity
  8
CT1
100
AcDbBlockReference
  2
P_ON
 10
5.641668
 20
24.334826
 30
0.0
 41
-0.467277
 42
0.467277
 43
0.467277
 50
90.0
  0
POLYLINE
  5
1B3
100
AcDbEntity
  8
C1
100
AcDb2dPolyline
 66
     1
 10
0.0
 20
0.0
 30
0.0
 70
     1
  0
VERTEX
  5
1B4
100
AcDbEntity
  8
C1
100
AcDbVertex
100
AcDb2dVertex
 10
5.622358
 20
24.335678
 30
0.0
  0
VERTEX
  5
1B5
100
AcDbEntity
  8
C1
100
AcDbVertex
100
AcDb2dVertex
 10
5.606701
 20
24.381457
 30
0.0
 42
-0.173785
  0
VERTEX
  5
1B6
100
AcDbEntity
  8
C1
100
AcDbVertex
100
AcDb2dVertex
 10
5.624914
 20
24.526025
 30
0.0
 42
-0.029726
  0
VERTEX
  5
1B7
100
AcDbEntity
  8
C1
100
AcDbVertex
100
AcDb2dVertex
 10
5.64604
 20
24.562174
 30
0.0
 42
-0.101985
  0
VERTEX
  5
1B8
100
AcDbEntity
  8
C1
100
AcDbVertex
100
AcDb2dVertex
 10
5.654805
 20
24.570831
 30
0.0
 42
-0.324128
  0
VERTEX
  5
1B9
100
AcDbEntity
  8
C1
100
AcDbVertex
100
AcDb2dVertex
 10
5.74092
 20
24.56644
 30
0.0
 42
0.141692
  0
VERTEX
  5
1BA
100
AcDbEntity
  8
C1
100
AcDbVertex
100
AcDb2dVertex
 10
5.908884
 20
24.496153
 30
0.0
 42
0.062552
  0
VERTEX
  5
1BB
100
AcDbEntity
  8
C1
100
AcDbVertex
100
AcDb2dVertex
 10
6.005783
 20
24.497135
 30
0.0
 42
-0.073623
  0
VERTEX
  5
1BC
100
AcDbEntity
  8
C1
100
AcDbVertex
100
AcDb2dVertex
 10
6.088234
 20
24.496153
 30
0.0
 42
-0.279439
  0
VERTEX
  5
1BD
100
AcDbEntity
  8
C1
100
AcDbVertex
100
AcDb2dVertex
 10
6.19076
 20
24.409118
 30
0.0
 42
-0.052759
  0
VERTEX
  5
1BE
100
AcDbEntity
  8
C1
100
AcDbVertex
100
AcDb2dVertex
 10
6.201531
 20
24.360153
 30
0.0
 42
-0.027026
  0
VERTEX
  5
1BF
100
AcDbEntity
  8
C1
100
AcDbVertex
100
AcDb2dVertex
 10
6.290002
 20
24.364939
 30
0.0
 42
-0.016837
  0
VERTEX
  5
1C0
100
AcDbEntity
  8
C1
100
AcDbVertex
100
AcDb2dVertex
 10
7.036315
 20
23.798918
 30
0.0
 42
0.114135
  0
VERTEX
  5
1C1
100
AcDbEntity
  8
C1
100
AcDbVertex
100
AcDb2dVertex
 10
7.012495
 20
23.746763
 30
0.0
 42
0.085993
  0
VERTEX
  5
1C2
100
AcDbEntity
  8
C1
100
AcDbVertex
100
AcDb2dVertex
 10
7.010016
 20
23.662963
 30
0.0
 42
0.011527
  0
VERTEX
  5
1C3
100
AcDbEntity
  8
C1
100
AcDbVertex
100
AcDb2dVertex
 10
7.03432
 20
23.517047
 30
0.0
 42
0.008549
  0
VERTEX
  5
1C4
100
AcDbEntity
  8
C1
100
AcDbVertex
100
AcDb2dVertex
 10
6.950364
 20
23.516439
 30
0.0
 42
0.074438
  0
VERTEX
  5
1C5
100
AcDbEntity
  8
C1
100
AcDbVertex
100
AcDb2dVertex
 10
6.613836
 20
23.457651
 30
0.0
 42
0.032083
  0
VERTEX
  5
1C6
100
AcDbEntity
  8
C1
100
AcDbVertex
100
AcDb2dVertex
 10
6.276981
 20
23.307422
 30
0.0
 42
0.00477
  0
VERTEX
  5
1C7
100
AcDbEntity
  8
C1
100
AcDbVertex
100
AcDb2dVertex
 10
6.272875
 20
23.201975
 30
0.0
 42
0.146468
  0
VERTEX
  5
1C8
100
AcDbEntity
  8
C1
100
AcDbVertex
100
AcDb2dVertex
 10
6.316258
 20
23.082723
 30
0.0
 42
0.094535
  0
VERTEX
  5
1C9
100
AcDbEntity
  8
C1
100
AcDbVertex
100
AcDb2dVertex
 10
6.418463
 20
22.988929
 30
0.0
 42
0.041729
  0
VERTEX
  5
1CA
100
AcDbEntity
  8
C1
100
AcDbVertex
100
AcDb2dVertex
 10
6.659404
 20
22.866361
 30
0.0
 42
0.012346
  0
VERTEX
  5
1CB
100
AcDbEntity
  8
C1
100
AcDbVertex
100
AcDb2dVertex
 10
6.789006
 20
22.823572
 30
0.0
 42
-0.039955
  0
VERTEX
  5
1CC
100
AcDbEntity
  8
C1
100
AcDbVertex
100
AcDb2dVertex
 10
6.80309
 20
22.704017
 30
0.0
 42
0.132036
  0
VERTEX
  5
1CD
100
AcDbEntity
  8
C1
100
AcDbVertex
100
AcDb2dVertex
 10
6.832677
 20
22.541233
 30
0.0
 42
0.068126
  0
VERTEX
  5
1CE
100
AcDbEntity
  8
C1
100
AcDbVertex
100
AcDb2dVertex
 10
6.942247
 20
22.373404
 30
0.0
 42
0.105837
  0
VERTEX
  5
1CF
100
AcDbEntity
  8
C1
100
AcDbVertex
100
AcDb2dVertex
 10
7.058756
 20
22.285662
 30
0.0
 42
0.000757
  0
VERTEX
  5
1D0
100
AcDbEntity
  8
C1
100
AcDbVertex
100
AcDb2dVertex
 10
7.062342
 20
22.284003
 30
0.0
 42
-0.028582
  0
VERTEX
  5
1D1
100
AcDbEntity
  8
C1
100
AcDbVertex
100
AcDb2dVertex
 10
6.892277
 20
22.267152
 30
0.0
 42
-0.099458
  0
VERTEX
  5
1D2
100
AcDbEntity
  8
C1
100
AcDbVertex
100
AcDb2dVertex
 10
6.474443
 20
22.333144
 30
0.0
 42
-0.038002
  0
VERTEX
  5
1D3
100
AcDbEntity
  8
C1
100
AcDbVertex
100
AcDb2dVertex
 10
6.094183
 20
22.507943
 30
0.0
 42
-0.094949
  0
VERTEX
  5
1D4
100
AcDbEntity
  8
C1
100
AcDbVertex
100
AcDb2dVertex
 10
5.964685
 20
22.616174
 30
0.0
 42
-0.069342
  0
VERTEX
  5
1D5
100
AcDbEntity
  8
C1
100
AcDbVertex
100
AcDb2dVertex
 10
5.821224
 20
22.851838
 30
0.0
 42
-0.039001
  0
VERTEX
  5
1D6
100
AcDbEntity
  8
C1
100
AcDbVertex
100
AcDb2dVertex
 10
5.662606
 20
23.314314
 30
0.0
 42
-0.036042
  0
VERTEX
  5
1D7
100
AcDbEntity
  8
C1
100
AcDbVertex
100
AcDb2dVertex
 10
5.563968
 20
23.855177
 30
0.0
 42
-0.060719
  0
VERTEX
  5
1D8
100
AcDbEntity
  8
C1
100
AcDbVertex
100
AcDb2dVertex
 10
5.568206
 20
24.182273
 30
0.0
 42
-0.06782
  0
VERTEX
  5
1D9
100
AcDbEntity
  8
C1
100
AcDbVertex
100
AcDb2dVertex
 10
5.59253
 20
24.270272
 30
0.0
 42
-0.011378
  0
SEQEND
  5
1DA
100
AcDbEntity
  8
C1
  0
INSERT
  5
1DB
100
AcDbEntity
  8
CT1
100
AcDbBlockReference
  2
S_OFF
 10
5.837163
 20
24.191766
 30
0.0
 41
-0.467277
 42
0.467277
 43
0.467277
 50
90.0
  0
INSERT
  5
1DC
100
AcDbEntity
  8
CT1
100
AcDbBlockReference
  2
P_ON
 10
7.629332
 20
23.456339
 30
0.0
 41
-0.467277
 42
0.467277
 43
0.467277
 50
90.0
  0
POLYLINE
  5
1DD
100
AcDbEntity
  8
C1
100
AcDb2dPolyline
 66
     1
 10
0.0
 20
0.0
 30
0.0
 70
     1
  0
VERTEX
  5
1DE
100
AcDbEntity
  8
C1
100
AcDbVertex
100
AcDb2dVertex
 10
7.657033
 20
23.430186
 30
0.0
  0
VERTEX
  5
1DF
100
AcDbEntity
  8
C1
100
AcDbVertex
100
AcDb2dVertex
 10
7.498081
 20
23.468196
 30
0.0
 42
0.040711
  0
VERTEX
  5
1E0
100
AcDbEntity
  8
C1
100
AcDbVertex
100
AcDb2dVertex
 10
7.101681
 20
23.515459
 30
0.0
 42
-0.012653
  0
VERTEX
  5
1E1
100
AcDbEntity
  8
C1
100
AcDbVertex
100
AcDb2dVertex
 10
7.075197
 20
23.672281
 30
0.0
 42
-0.085993
  0
VERTEX
  5
1E2
100
AcDbEntity
  8
C1
100
AcDbVertex
100
AcDb2dVertex
 10
7.077011
 20
23.733609
 30
0.0
 42
-0.279867
  0
VERTEX
  5
1E3
100
AcDbEntity
  8
C1
100
AcDbVertex
100
AcDb2dVertex
 10
7.120305
 20
23.78037
 30
0.0
 42
-0.100364
  0
VERTEX
  5
1E4
100
AcDbEntity
  8
C1
100
AcDbVertex
100
AcDb2dVertex
 10
7.286252
 20
23.793351
 30
0.0
 42
-0.155647
  0
VERTEX
  5
1E5
100
AcDbEntity
  8
C1
100
AcDbVertex
100
AcDb2dVertex
 10
7.425409
 20
23.729393
 30
0.0
 42
-0.072477
  0
VERTEX
  5
1E6
100
AcDbEntity
  8
C1
100
AcDbVertex
100
AcDb2dVertex
 10
7.630006
 20
23.479704
 30
0.0
 42
-0.021079
  0
SEQEND
  5
1E7
100
AcDbEntity
  8
C1
  0
INSERT
  5
1E8
100
AcDbEntity
  8
CT1
100
AcDbBlockReference
  2
S_OFF
 10
7.687284
 20
23.727292
 30
0.0
 41
-0.467277
 42
0.467277
 43
0.467277
 50
90.0
  0
INSERT
  5
1E9
100
AcDbEntity
  8
CT1
100
AcDbBlockReference
  2
P_ON
 10
8.574683
 20
23.863546
 30
0.0
 41
-0.467277
 42
0.467277
 43
0.467277
 50
90.0
  0
POLYLINE
  5
1EA
100
AcDbEntity
  8
C1
100
AcDb2dPolyline
 66
     1
 10
0.0
 20
0.0
 30
0.0
 70
     1
  0
VERTEX
  5
1EB
100
AcDbEntity
  8
C1
100
AcDbVertex
100
AcDb2dVertex
 10
8.583518
 20
23.87846
 30
0.0
  0
VERTEX
  5
1EC
100
AcDbEntity
  8
C1
100
AcDbVertex
100
AcDb2dVertex
 10
9.139914
 20
23.87846
 30
0.0
 42
0.011067
  0
VERTEX
  5
1ED
100
AcDbEntity
  8
C1
100
AcDbVertex
100
AcDb2dVertex
 10
9.00461
 20
23.820559
 30
0.0
 42
0.005016
  0
VERTEX
  5
1EE
100
AcDbEntity
  8
C1
100
AcDbVertex
100
AcDb2dVertex
 10
8.818805
 20
23.733875
 30
0.0
 42
0.006166
  0
VERTEX
  5
1EF
100
AcDbEntity
  8
C1
100
AcDbVertex
100
AcDb2dVertex
 10
8.671012
 20
23.660857
 30
0.0
 42
0.008829
  0
VERTEX
  5
1F0
100
AcDbEntity
  8
C1
100
AcDbVertex
100
AcDb2dVertex
 10
8.537291
 20
23.589726
 30
0.0
 42
0.003104
  0
VERTEX
  5
1F1
100
AcDbEntity
  8
C1
100
AcDbVertex
100
AcDb2dVertex
 10
8.143942
 20
23.36829
 30
0.0
 42
0.00498
  0
VERTEX
  5
1F2
100
AcDbEntity
  8
C1
100
AcDbVertex
100
AcDb2dVertex
 10
8.021129
 20
23.296513
 30
0.0
 42
0.002683
  0
VERTEX
  5
1F3
100
AcDbEntity
  8
C1
100
AcDbVertex
100
AcDb2dVertex
 10
8.010629
 20
23.301388
 30
0.0
 42
0.029873
  0
VERTEX
  5
1F4
100
AcDbEntity
  8
C1
100
AcDbVertex
100
AcDb2dVertex
 10
7.748225
 20
23.403014
 30
0.0
 42
-0.01107
  0
VERTEX
  5
1F5
100
AcDbEntity
  8
C1
100
AcDbVertex
100
AcDb2dVertex
 10
8.028067
 20
23.571169
 30
0.0
 42
-0.003104
  0
VERTEX
  5
1F6
100
AcDbEntity
  8
C1
100
AcDbVertex
100
AcDb2dVertex
 10
8.423944
 20
23.794028
 30
0.0
 42
-0.008829
  0
VERTEX
  5
1F7
100
AcDbEntity
  8
C1
100
AcDbVertex
100
AcDb2dVertex
 10
8.564948
 20
23.869034
 30
0.0
 42
-0.000753
  0
SEQEND
  5
1F8
100
AcDbEntity
  8
C1
  0
INSERT
  5
1F9
100
AcDbEntity
  8
CT1
100
AcDbBlockReference
  2
S_OFF
 10
9.148724
 20
23.682594
 30
0.0
 41
-0.467277
 42
0.467277
 43
0.467277
 50
90.0
  0
INSERT
  5
1FA
100
AcDbEntity
  8
CT1
100
AcDbBlockReference
  2
P_ON
 10
13.352166
 20
24.182506
 30
0.0
 41
-0.467277
 42
0.467277
 43
0.467277
 50
90.0
  0
POLYLINE
  5
1FB
100
AcDbEntity
  8
C1
100
AcDb2dPolyline
 66
     1
 10
0.0
 20
0.0
 30
0.0
 70
     1
  0
VERTEX
  5
1FC
100
AcDbEntity
  8
C1
100
AcDbVertex
100
AcDb2dVertex
 10
13.448108
 20
24.176051
 30
0.0
  0
VERTEX
  5
1FD
100
AcDbEntity
  8
C1
100
AcDbVertex
100
AcDb2dVertex
 10
12.433923
 20
24.176051
 30
0.0
 42
0.002454
  0
VERTEX
  5
1FE
100
AcDbEntity
  8
C1
100
AcDbVertex
100
AcDb2dVertex
 10
12.235524
 20
24.212929
 30
0.0
 42
0.004529
  0
VERTEX
  5
1FF
100
AcDbEntity
  8
C1
100
AcDbVertex
100
AcDb2dVertex
 10
12.064249
 20
24.242297
 30
0.0
 42
0.006457
  0
VERTEX
  5
200
100
AcDbEntity
  8
C1
100
AcDbVertex
100
AcDb2dVertex
 10
11.921867
 20
24.263503
 30
0.0
 42
0.004923
  0
VERTEX
  5
201
100
AcDbEntity
  8
C1
100
AcDbVertex
100
AcDb2dVertex
 10
11.731262
 20
24.28747
 30
0.0
 42
0.020984
  0
VERTEX
  5
202
100
AcDbEntity
  8
C1
100
AcDbVertex
100
AcDb2dVertex
 10
11.568912
 20
24.299387
 30
0.0
 42
0.011813
  0
VERTEX
  5
203
100
AcDbEntity
  8
C1
100
AcDbVertex
100
AcDb2dVertex
 10
11.256074
 20
24.301793
 30
0.0
 42
0.020305
  0
VERTEX
  5
204
100
AcDbEntity
  8
C1
100
AcDbVertex
100
AcDb2dVertex
 10
10.952737
 20
24.284624
 30
0.0
 42
0.013416
  0
VERTEX
  5
205
100
AcDbEntity
  8
C1
100
AcDbVertex
100
AcDb2dVertex
 10
10.480484
 20
24.225773
 30
0.0
 42
0.009007
  0
VERTEX
  5
206
100
AcDbEntity
  8
C1
100
AcDbVertex
100
AcDb2dVertex
 10
10.198731
 20
24.177751
 30
0.0
  0
VERTEX
  5
207
100
AcDbEntity
  8
C1
100
AcDbVertex
100
AcDb2dVertex
 10
9.284129
 20
24.177751
 30
0.0
 42
-0.011874
  0
VERTEX
  5
208
100
AcDbEntity
  8
C1
100
AcDbVertex
100
AcDb2dVertex
 10
9.615918
 20
24.28149
 30
0.0
 42
-0.017763
  0
VERTEX
  5
209
100
AcDbEntity
  8
C1
100
AcDbVertex
100
AcDb2dVertex
 10
9.983903
 20
24.373012
 30
0.0
 42
-0.01436
  0
VERTEX
  5
20A
100
AcDbEntity
  8
C1
100
AcDbVertex
100
AcDb2dVertex
 10
10.445383
 20
24.45676
 30
0.0
 42
-0.013416
  0
VERTEX
  5
20B
100
AcDbEntity
  8
C1
100
AcDbVertex
100
AcDb2dVertex
 10
10.930076
 20
24.517161
 30
0.0
 42
-0.020305
  0
VERTEX
  5
20C
100
AcDbEntity
  8
C1
100
AcDbVertex
100
AcDb2dVertex
 10
11.252351
 20
24.535402
 30
0.0
 42
-0.011813
  0
VERTEX
  5
20D
100
AcDbEntity
  8
C1
100
AcDbVertex
100
AcDb2dVertex
 10
11.576227
 20
24.532912
 30
0.0
 42
-0.020984
  0
VERTEX
  5
20E
100
AcDbEntity
  8
C1
100
AcDbVertex
100
AcDb2dVertex
 10
11.758127
 20
24.519559
 30
0.0
 42
-0.004923
  0
VERTEX
  5
20F
100
AcDbEntity
  8
C1
100
AcDbVertex
100
AcDb2dVertex
 10
11.953297
 20
24.495018
 30
0.0
 42
-0.006457
  0
VERTEX
  5
210
100
AcDbEntity
  8
C1
100
AcDbVertex
100
AcDb2dVertex
 10
12.101647
 20
24.472923
 30
0.0
 42
-0.004529
  0
VERTEX
  5
211
100
AcDbEntity
  8
C1
100
AcDbVertex
100
AcDb2dVertex
 10
12.277094
 20
24.44284
 30
0.0
 42
-0.003113
  0
VERTEX
  5
212
100
AcDbEntity
  8
C1
100
AcDbVertex
100
AcDb2dVertex
 10
12.531611
 20
24.395183
 30
0.0
 42
-0.011285
  0
VERTEX
  5
213
100
AcDbEntity
  8
C1
100
AcDbVertex
100
AcDb2dVertex
 10
12.904464
 20
24.314192
 30
0.0
 42
-0.006186
  0
SEQEND
  5
214
100
AcDbEntity
  8
C1
  0
INSERT
  5
215
100
AcDbEntity
  8
CT1
100
AcDbBlockReference
  2
S_OFF
 10
13.171843
 20
24.547436
 30
0.0
 41
-0.467277
 42
0.467277
 43
0.467277
 50
90.0
  0
INSERT
  5
216
100
AcDbEntity
  8
CT1
100
AcDbBlockReference
  2
P_ON
 10
13.879802
 20
24.112074
 30
0.0
 41
-0.467277
 42
0.467277
 43
0.467277
 50
90.0
  0
POLYLINE
  5
217
100
AcDbEntity
  8
C1
100
AcDb2dPolyline
 66
     1
 10
0.0
 20
0.0
 30
0.0
 70
     1
  0
VERTEX
  5
218
100
AcDbEntity
  8
C1
100
AcDbVertex
100
AcDb2dVertex
 10
13.945793
 20
24.118543
 30
0.0
  0
VERTEX
  5
219
100
AcDbEntity
  8
C1
100
AcDbVertex
100
AcDb2dVertex
 10
13.76846
 20
24.05114
 30
0.0
 42
0.000625
  0
VERTEX
  5
21A
100
AcDbEntity
  8
C1
100
AcDbVertex
100
AcDb2dVertex
 10
13.501084
 20
23.943314
 30
0.0
  0
VERTEX
  5
21B
100
AcDbEntity
  8
C1
100
AcDbVertex
100
AcDb2dVertex
 10
6.955326
 20
23.943314
 30
0.0
  0
VERTEX
  5
21C
100
AcDbEntity
  8
C1
100
AcDbVertex
100
AcDb2dVertex
 10
6.733316
 20
24.118543
 30
0.0
  0
SEQEND
  5
21D
100
AcDbEntity
  8
C1
  0
INSERT
  5
21E
100
AcDbEntity
  8
CT1
100
AcDbBlockReference
  2
S_OFF
 10
13.768468
 20
24.518285
 30
0.0
 41
-0.467277
 42
0.467277
 43
0.467277
 50
90.0
  0
INSERT
  5
21F
100
AcDbEntity
  8
CT1
100
AcDbBlockReference
  2
P_ON
 10
13.941698
 20
23.793939
 30
0.0
 41
-0.467277
 42
0.467277
 43
0.467277
 50
90.0
  0
POLYLINE
  5
220
100
AcDbEntity
  8
C1
100
AcDb2dPolyline
 66
     1
 10
0.0
 20
0.0
 30
0.0
 70
     1
  0
VERTEX
  5
221
100
AcDbEntity
  8
C1
100
AcDbVertex
100
AcDb2dVertex
 10
13.912073
 20
23.786908
 30
0.0
  0
VERTEX
  5
222
100
AcDbEntity
  8
C1
100
AcDbVertex
100
AcDb2dVertex
 10
13.96818
 20
23.807629
 30
0.0
 42
-0.000523
  0
VERTEX
  5
223
100
AcDbEntity
  8
C1
100
AcDbVertex
100
AcDb2dVertex
 10
14.274863
 20
23.916681
 30
0.0
 42
-0.007499
  0
VERTEX
  5
224
100
AcDbEntity
  8
C1
100
AcDbVertex
100
AcDb2dVertex
 10
14.674314
 20
23.778178
 30
0.0
 42
-0.000526
  0
VERTEX
  5
225
100
AcDbEntity
  8
C1
100
AcDbVertex
100
AcDb2dVertex
 10
14.696345
 20
23.770141
 30
0.0
 42
0.000237
  0
VERTEX
  5
226
100
AcDbEntity
  8
C1
100
AcDbVertex
100
AcDb2dVertex
 10
14.650983
 20
23.722863
 30
0.0
 42
0.01272
  0
VERTEX
  5
227
100
AcDbEntity
  8
C1
100
AcDbVertex
100
AcDb2dVertex
 10
14.52438
 20
23.583879
 30
0.0
 42
0.009435
  0
VERTEX
  5
228
100
AcDbEntity
  8
C1
100
AcDbVertex
100
AcDb2dVertex
 10
14.028559
 20
23.750677
 30
0.0
 42
0.002047
  0
SEQEND
  5
229
100
AcDbEntity
  8
C1
  0
INSERT
  5
22A
100
AcDbEntity
  8
CT1
100
AcDbBlockReference
  2
S_OFF
 10
13.848147
 20
23.606828
 30
0.0
 41
-0.467277
 42
0.467277
 43
0.467277
 50
90.0
  0
INSERT
  5
22B
100
AcDbEntity
  8
CT1
100
AcDbBlockReference
  2
P_ON
 10
15.038005
 20
24.109624
 30
0.0
 41
-0.467277
 42
0.467277
 43
0.467277
 50
90.0
  0
POLYLINE
  5
22C
100
AcDbEntity
  8
C1
100
AcDb2dPolyline
 66
     1
 10
0.0
 20
0.0
 30
0.0
  0
VERTEX
  5
22D
100
AcDbEntity
  8
C1
100
AcDbVertex
100
AcDb2dVertex
 10
14.872798
 20
23.947826
 30
0.0
 42
0.003031
  0
VERTEX
  5
22E
100
AcDbEntity
  8
C1
100
AcDbVertex
100
AcDb2dVertex
 10
14.867329
 20
23.943314
 30
0.0
  0
VERTEX
  5
22F
100
AcDbEntity
  8
C1
100
AcDbVertex
100
AcDb2dVertex
 10
14.350072
 20
23.943314
 30
0.0
 42
-0.000236
  0
VERTEX
  5
230
100
AcDbEntity
  8
C1
100
AcDbVertex
100
AcDb2dVertex
 10
14.488682
 20
23.992285
 30
0.0
 42
-0.007444
  0
VERTEX
  5
231
100
AcDbEntity
  8
C1
100
AcDbVertex
100
AcDb2dVertex
 10
14.549432
 20
24.012704
 30
0.0
 42
-0.006486
  0
VERTEX
  5
232
100
AcDbEntity
  8
C1
100
AcDbVertex
100
AcDb2dVertex
 10
14.575061
 20
24.020531
 30
0.0
 42
-0.00024
  0
VERTEX
  5
233
100
AcDbEntity
  8
C1
100
AcDbVertex
100
AcDb2dVertex
 10
14.912171
 20
24.118543
 30
0.0
  0
VERTEX
  5
234
100
AcDbEntity
  8
C1
100
AcDbVertex
100
AcDb2dVertex
 10
15.083105
 20
24.118543
 30
0.0
  0
VERTEX
  5
235
100
AcDbEntity
  8
C1
100
AcDbVertex
100
AcDb2dVertex
 10
14.867329
 20
23.943314
 30
0.0
  0
SEQEND
  5
236
100
AcDbEntity
  8
C1
  0
INSERT
  5
237
100
AcDbEntity
  8
CT1
100
AcDbBlockReference
  2
S_OFF
 10
15.175492
 20
23.974132
 30
0.0
 41
-0.467277
 42
0.467277
 43
0.467277
 50
90.0
  0
INSERT
  5
238
100
AcDbEntity
  8
CT1
100
AcDbBlockReference
  2
P_ON
 10
15.489589
 20
23.270751
 30
0.0
 41
-0.467277
 42
0.467277
 43
0.467277
 50
90.0
  0
POLYLINE
  5
239
100
AcDbEntity
  8
C1
100
AcDb2dPolyline
 66
     1
 10
0.0
 20
0.0
 30
0.0
 70
     1
  0
VERTEX
  5
23A
100
AcDbEntity
  8
C1
100
AcDbVertex
100
AcDb2dVertex
 10
15.47293
 20
23.260251
 30
0.0
  0
VERTEX
  5
23B
100
AcDbEntity
  8
C1
100
AcDbVertex
100
AcDb2dVertex
 10
15.473241
 20
23.261294
 30
0.0
 42
0.007045
  0
VERTEX
  5
23C
100
AcDbEntity
  8
C1
100
AcDbVertex
100
AcDb2dVertex
 10
15.493955
 20
23.335223
 30
0.0
 42
0.001467
  0
VERTEX
  5
23D
100
AcDbEntity
  8
C1
100
AcDbVertex
100
AcDb2dVertex
 10
15.520668
 20
23.439512
 30
0.0
 42
-0.036281
  0
VERTEX
  5
23E
100
AcDbEntity
  8
C1
100
AcDbVertex
100
AcDb2dVertex
 10
18.072132
 20
22.304482
 30
0.0
 42
0.050178
  0
VERTEX
  5
23F
100
AcDbEntity
  8
C1
100
AcDbVertex
100
AcDb2dVertex
 10
20.15813
 20
21.445011
 30
0.0
 42
0.172775
  0
VERTEX
  5
240
100
AcDbEntity
  8
C1
100
AcDbVertex
100
AcDb2dVertex
 10
22.400315
 20
21.560852
 30
0.0
 42
0.184347
  0
VERTEX
  5
241
100
AcDbEntity
  8
C1
100
AcDbVertex
100
AcDb2dVertex
 10
23.934009
 20
23.013862
 30
0.0
 42
0.116
  0
VERTEX
  5
242
100
AcDbEntity
  8
C1
100
AcDbVertex
100
AcDb2dVertex
 10
24.124196
 20
23.877165
 30
0.0
  0
VERTEX
  5
243
100
AcDbEntity
  8
C1
100
AcDbVertex
100
AcDb2dVertex
 10
24.351087
 20
23.877165
 30
0.0
 42
-0.015261
  0
VERTEX
  5
244
100
AcDbEntity
  8
C1
100
AcDbVertex
100
AcDb2dVertex
 10
24.374819
 20
23.687315
 30
0.0
 42
-0.132673
  0
VERTEX
  5
245
100
AcDbEntity
  8
C1
100
AcDbVertex
100
AcDb2dVertex
 10
24.199916
 20
22.668183
 30
0.0
 42
-0.190213
  0
VERTEX
  5
246
100
AcDbEntity
  8
C1
100
AcDbVertex
100
AcDb2dVertex
 10
22.64553
 20
21.18758
 30
0.0
 42
-0.170095
  0
VERTEX
  5
247
100
AcDbEntity
  8
C1
100
AcDbVertex
100
AcDb2dVertex
 10
20.264493
 20
21.072742
 30
0.0
 42
-0.061311
  0
VERTEX
  5
248
100
AcDbEntity
  8
C1
100
AcDbVertex
100
AcDb2dVertex
 10
18.090041
 20
22.021031
 30
0.0
 42
0.045771
  0
SEQEND
  5
249
100
AcDbEntity
  8
C1
  0
INSERT
  5
24A
100
AcDbEntity
  8
CT1
100
AcDbBlockReference
  2
S_OFF
 10
15.484494
 20
22.957731
 30
0.0
 41
-0.467277
 42
0.467277
 43
0.467277
 50
90.0
  0
INSERT
  5
24B
100
AcDbEntity
  8
CT1
100
AcDbBlockReference
  2
P_ON
 10
18.131861
 20
24.187546
 30
0.0
 41
-0.467277
 42
0.467277
 43
0.467277
 50
90.0
  0
POLYLINE
  5
24C
100
AcDbEntity
  8
C1
100
AcDb2dPolyline
 66
     1
 10
0.0
 20
0.0
 30
0.0
 70
     1
  0
VERTEX
  5
24D
100
AcDbEntity
  8
C1
100
AcDbVertex
100
AcDb2dVertex
 10
18.198277
 20
24.177491
 30
0.0
  0
VERTEX
  5
24E
100
AcDbEntity
  8
C1
100
AcDbVertex
100
AcDb2dVertex
 10
17.617411
 20
24.177491
 30
0.0
 42
0.003316
  0
VERTEX
  5
24F
100
AcDbEntity
  8
C1
100
AcDbVertex
100
AcDb2dVertex
 10
17.411431
 20
24.246068
 30
0.0
 42
0.09177
  0
VERTEX
  5
250
100
AcDbEntity
  8
C1
100
AcDbVertex
100
AcDb2dVertex
 10
15.862416
 20
24.37704
 30
0.0
 42
0.044977
  0
VERTEX
  5
251
100
AcDbEntity
  8
C1
100
AcDbVertex
100
AcDb2dVertex
 10
15.622328
 20
24.165272
 30
0.0
 42
0.041589
  0
VERTEX
  5
252
100
AcDbEntity
  8
C1
100
AcDbVertex
100
AcDb2dVertex
 10
15.437297
 20
23.93409
 30
0.0
 42
-0.06214
  0
VERTEX
  5
253
100
AcDbEntity
  8
C1
100
AcDbVertex
100
AcDb2dVertex
 10
15.469214
 20
23.606362
 30
0.0
 42
-0.084439
  0
VERTEX
  5
254
100
AcDbEntity
  8
C1
100
AcDbVertex
100
AcDb2dVertex
 10
15.399503
 20
23.25437
 30
0.0
 42
-0.014204
  0
VERTEX
  5
255
100
AcDbEntity
  8
C1
100
AcDbVertex
100
AcDb2dVertex
 10
15.076542
 20
22.741784
 30
0.0
 42
-0.075277
  0
VERTEX
  5
256
100
AcDbEntity
  8
C1
100
AcDbVertex
100
AcDb2dVertex
 10
15.006953
 20
22.336139
 30
0.0
 42
-0.047693
  0
VERTEX
  5
257
100
AcDbEntity
  8
C1
100
AcDbVertex
100
AcDb2dVertex
 10
14.855333
 20
21.992458
 30
0.0
 42
-0.086057
  0
VERTEX
  5
258
100
AcDbEntity
  8
C1
100
AcDbVertex
100
AcDb2dVertex
 10
14.723356
 20
21.830082
 30
0.0
 42
-0.13314
  0
VERTEX
  5
259
100
AcDbEntity
  8
C1
100
AcDbVertex
100
AcDb2dVertex
 10
14.535411
 20
21.738856
 30
0.0
 42
-0.025208
  0
VERTEX
  5
25A
100
AcDbEntity
  8
C1
100
AcDbVertex
100
AcDb2dVertex
 10
14.488166
 20
21.543021
 30
0.0
 42
-0.129027
  0
VERTEX
  5
25B
100
AcDbEntity
  8
C1
100
AcDbVertex
100
AcDb2dVertex
 10
14.196677
 20
21.060876
 30
0.0
 42
-0.064876
  0
VERTEX
  5
25C
100
AcDbEntity
  8
C1
100
AcDbVertex
100
AcDb2dVertex
 10
13.772548
 20
20.744554
 30
0.0
 42
-0.042689
  0
VERTEX
  5
25D
100
AcDbEntity
  8
C1
100
AcDbVertex
100
AcDb2dVertex
 10
13.042033
 20
20.413123
 30
0.0
 42
-0.090655
  0
VERTEX
  5
25E
100
AcDbEntity
  8
C1
100
AcDbVertex
100
AcDb2dVertex
 10
12.141622
 20
20.268018
 30
0.0
 42
-0.019949
  0
VERTEX
  5
25F
100
AcDbEntity
  8
C1
100
AcDbVertex
100
AcDb2dVertex
 10
11.878764
 20
20.284053
 30
0.0
 42
0.009995
  0
VERTEX
  5
260
100
AcDbEntity
  8
C1
100
AcDbVertex
100
AcDb2dVertex
 10
12.246863
 20
20.548604
 30
0.0
 42
0.053865
  0
VERTEX
  5
261
100
AcDbEntity
  8
C1
100
AcDbVertex
100
AcDb2dVertex
 10
12.847133
 20
21.108689
 30
0.0
 42
0.046778
  0
VERTEX
  5
262
100
AcDbEntity
  8
C1
100
AcDbVertex
100
AcDb2dVertex
 10
13.818728
 20
22.472804
 30
0.0
 42
-0.05167
  0
VERTEX
  5
263
100
AcDbEntity
  8
C1
100
AcDbVertex
100
AcDb2dVertex
 10
14.710768
 20
23.6997
 30
0.0
 42
-0.046485
  0
VERTEX
  5
264
100
AcDbEntity
  8
C1
100
AcDbVertex
100
AcDb2dVertex
 10
15.129378
 20
24.086544
 30
0.0
 42
-0.00888
  0
VERTEX
  5
265
100
AcDbEntity
  8
C1
100
AcDbVertex
100
AcDb2dVertex
 10
15.436627
 20
24.313076
 30
0.0
 42
0.012018
  0
VERTEX
  5
266
100
AcDbEntity
  8
C1
100
AcDbVertex
100
AcDb2dVertex
 10
15.236467
 20
24.267565
 30
0.0
 42
0.081472
  0
VERTEX
  5
267
100
AcDbEntity
  8
C1
100
AcDbVertex
100
AcDb2dVertex
 10
11.507399
 20
22.645928
 30
0.0
 42
-0.07742
  0
VERTEX
  5
268
100
AcDbEntity
  8
C1
100
AcDbVertex
100
AcDb2dVertex
 10
7.495733
 20
20.86285
 30
0.0
 42
-0.024667
  0
VERTEX
  5
269
100
AcDbEntity
  8
C1
100
AcDbVertex
100
AcDb2dVertex
 10
6.026746
 20
20.542994
 30
0.0
 42
-0.01678
  0
VERTEX
  5
26A
100
AcDbEntity
  8
C1
100
AcDbVertex
100
AcDb2dVertex
 10
4.17031
 20
20.297434
 30
0.0
 42
0.015784
  0
VERTEX
  5
26B
100
AcDbEntity
  8
C1
100
AcDbVertex
100
AcDb2dVertex
 10
4.214057
 20
20.352871
 30
0.0
 42
0.024429
  0
VERTEX
  5
26C
100
AcDbEntity
  8
C1
100
AcDbVertex
100
AcDb2dVertex
 10
4.274631
 20
20.443798
 30
0.0
 42
0.000542
  0
VERTEX
  5
26D
100
AcDbEntity
  8
C1
100
AcDbVertex
100
AcDb2dVertex
 10
4.298967
 20
20.486539
 30
0.0
 42
0.015459
  0
VERTEX
  5
26E
100
AcDbEntity
  8
C1
100
AcDbVertex
100
AcDb2dVertex
 10
5.997952
 20
20.715841
 30
0.0
 42
0.024667
  0
VERTEX
  5
26F
100
AcDbEntity
  8
C1
100
AcDbVertex
100
AcDb2dVertex
 10
7.450056
 20
21.032021
 30
0.0
 42
0.041933
  0
VERTEX
  5
270
100
AcDbEntity
  8
C1
100
AcDbVertex
100
AcDb2dVertex
 10
9.667551
 20
21.835275
 30
0.0
 42
-0.018237
  0
VERTEX
  5
271
100
AcDbEntity
  8
C1
100
AcDbVertex
100
AcDb2dVertex
 10
9.029705
 20
21.925273
 30
0.0
 42
-0.001489
  0
VERTEX
  5
272
100
AcDbEntity
  8
C1
100
AcDbVertex
100
AcDb2dVertex
 10
7.901636
 20
22.130105
 30
0.0
 42
-0.006782
  0
VERTEX
  5
273
100
AcDbEntity
  8
C1
100
AcDbVertex
100
AcDb2dVertex
 10
7.654691
 20
22.179178
 30
0.0
 42
-0.017967
  0
VERTEX
  5
274
100
AcDbEntity
  8
C1
100
AcDbVertex
100
AcDb2dVertex
 10
7.264042
 20
22.277122
 30
0.0
 42
-0.038269
  0
VERTEX
  5
275
100
AcDbEntity
  8
C1
100
AcDbVertex
100
AcDb2dVertex
 10
7.086751
 20
22.343468
 30
0.0
 42
-0.105837
  0
VERTEX
  5
276
100
AcDbEntity
  8
C1
100
AcDbVertex
100
AcDb2dVertex
 10
6.992262
 20
22.414627
 30
0.0
 42
-0.068126
  0
VERTEX
  5
277
100
AcDbEntity
  8
C1
100
AcDbVertex
100
AcDb2dVertex
 10
6.892455
 20
22.567501
 30
0.0
 42
-0.132036
  0
VERTEX
  5
278
100
AcDbEntity
  8
C1
100
AcDbVertex
100
AcDb2dVertex
 10
6.86898
 20
22.696657
 30
0.0
 42
0.110473
  0
VERTEX
  5
279
100
AcDbEntity
  8
C1
100
AcDbVertex
100
AcDb2dVertex
 10
6.847618
 20
22.851277
 30
0.0
 42
0.02313
  0
VERTEX
  5
27A
100
AcDbEntity
  8
C1
100
AcDbVertex
100
AcDb2dVertex
 10
6.835594
 20
22.879432
 30
0.0
 42
-0.045924
  0
VERTEX
  5
27B
100
AcDbEntity
  8
C1
100
AcDbVertex
100
AcDb2dVertex
 10
6.683214
 20
22.925954
 30
0.0
 42
-0.041499
  0
VERTEX
  5
27C
100
AcDbEntity
  8
C1
100
AcDbVertex
100
AcDb2dVertex
 10
6.453375
 20
23.043008
 30
0.0
 42
-0.094535
  0
VERTEX
  5
27D
100
AcDbEntity
  8
C1
100
AcDbVertex
100
AcDb2dVertex
 10
6.369352
 20
23.120116
 30
0.0
 42
-0.14428
  0
VERTEX
  5
27E
100
AcDbEntity
  8
C1
100
AcDbVertex
100
AcDb2dVertex
 10
6.338963
 20
23.202549
 30
0.0
 42
-0.040346
  0
VERTEX
  5
27F
100
AcDbEntity
  8
C1
100
AcDbVertex
100
AcDb2dVertex
 10
6.339887
 20
23.268358
 30
0.0
 42
-0.039494
  0
VERTEX
  5
280
100
AcDbEntity
  8
C1
100
AcDbVertex
100
AcDb2dVertex
 10
6.634917
 20
23.393266
 30
0.0
 42
-0.074438
  0
VERTEX
  5
281
100
AcDbEntity
  8
C1
100
AcDbVertex
100
AcDb2dVertex
 10
6.952238
 20
23.448698
 30
0.0
 42
-0.056156
  0
VERTEX
  5
282
100
AcDbEntity
  8
C1
100
AcDbVertex
100
AcDb2dVertex
 10
7.485269
 20
23.401749
 30
0.0
 42
-0.057358
  0
VERTEX
  5
283
100
AcDbEntity
  8
C1
100
AcDbVertex
100
AcDb2dVertex
 10
7.983499
 20
23.239601
 30
0.0
 42
-0.149865
  0
VERTEX
  5
284
100
AcDbEntity
  8
C1
100
AcDbVertex
100
AcDb2dVertex
 10
8.427325
 20
22.845007
 30
0.0
 42
0.096158
  0
VERTEX
  5
285
100
AcDbEntity
  8
C1
100
AcDbVertex
100
AcDb2dVertex
 10
8.939354
 20
22.282281
 30
0.0
 42
0.002169
  0
VERTEX
  5
286
100
AcDbEntity
  8
C1
100
AcDbVertex
100
AcDb2dVertex
 10
8.976235
 20
22.26792
 30
0.0
 42
0.010374
  0
VERTEX
  5
287
100
AcDbEntity
  8
C1
100
AcDbVertex
100
AcDb2dVertex
 10
9.625884
 20
22.033554
 30
0.0
 42
0.022916
  0
VERTEX
  5
288
100
AcDbEntity
  8
C1
100
AcDbVertex
100
AcDb2dVertex
 10
9.91297
 20
21.951108
 30
0.0
 42
0.030551
  0
VERTEX
  5
289
100
AcDbEntity
  8
C1
100
AcDbVertex
100
AcDb2dVertex
 10
11.412431
 20
22.79319
 30
0.0
 42
-0.081472
  0
VERTEX
  5
28A
100
AcDbEntity
  8
C1
100
AcDbVertex
100
AcDb2dVertex
 10
15.19352
 20
24.437449
 30
0.0
 42
-0.129464
  0
VERTEX
  5
28B
100
AcDbEntity
  8
C1
100
AcDbVertex
100
AcDb2dVertex
 10
17.457727
 20
24.41507
 30
0.0
 42
-0.00938
  0
SEQEND
  5
28C
100
AcDbEntity
  8
C1
  0
INSERT
  5
28D
100
AcDbEntity
  8
CT1
100
AcDbBlockReference
  2
S_OFF
 10
18.053674
 20
24.685418
 30
0.0
 41
-0.467277
 42
0.467277
 43
0.467277
 50
90.0
  0
INSERT
  5
28E
100
AcDbEntity
  8
CT1
100
AcDbBlockReference
  2
P_ON
 10
18.503346
 20
23.868219
 30
0.0
 41
-0.467277
 42
0.467277
 43
0.467277
 50
90.0
  0
POLYLINE
  5
28F
100
AcDbEntity
  8
C1
100
AcDb2dPolyline
 66
     1
 10
0.0
 20
0.0
 30
0.0
 70
     1
  0
VERTEX
  5
290
100
AcDbEntity
  8
C1
100
AcDbVertex
100
AcDb2dVertex
 10
18.433372
 20
23.875102
 30
0.0
  0
VERTEX
  5
291
100
AcDbEntity
  8
C1
100
AcDbVertex
100
AcDb2dVertex
 10
19.024571
 20
23.875102
 30
0.0
 42
-0.036109
  0
VERTEX
  5
292
100
AcDbEntity
  8
C1
100
AcDbVertex
100
AcDb2dVertex
 10
21.803706
 20
22.542865
 30
0.0
 42
-0.074363
  0
VERTEX
  5
293
100
AcDbEntity
  8
C1
100
AcDbVertex
100
AcDb2dVertex
 10
21.57958
 20
22.487485
 30
0.0
 42
-0.179626
  0
VERTEX
  5
294
100
AcDbEntity
  8
C1
100
AcDbVertex
100
AcDb2dVertex
 10
21.361122
 20
22.578352
 30
0.0
 42
0.228011
  0
VERTEX
  5
295
100
AcDbEntity
  8
C1
100
AcDbVertex
100
AcDb2dVertex
 10
21.179723
 20
22.634722
 30
0.0
 42
0.089216
  0
VERTEX
  5
296
100
AcDbEntity
  8
C1
100
AcDbVertex
100
AcDb2dVertex
 10
21.013991
 20
22.563471
 30
0.0
 42
0.043341
  0
SEQEND
  5
297
100
AcDbEntity
  8
C1
  0
INSERT
  5
298
100
AcDbEntity
  8
CT1
100
AcDbBlockReference
  2
S_OFF
 10
18.609019
 20
23.322395
 30
0.0
 41
-0.467277
 42
0.467277
 43
0.467277
 50
90.0
  0
INSERT
  5
299
100
AcDbEntity
  8
CT1
100
AcDbBlockReference
  2
P_ON
 10
20.941071
 20
24.107354
 30
0.0
 41
-0.467277
 42
0.467277
 43
0.467277
 50
90.0
  0
POLYLINE
  5
29A
100
AcDbEntity
  8
C1
100
AcDb2dPolyline
 66
     1
 10
0.0
 20
0.0
 30
0.0
 70
     1
  0
VERTEX
  5
29B
100
AcDbEntity
  8
C1
100
AcDbVertex
100
AcDb2dVertex
 10
20.958617
 20
24.12046
 30
0.0
  0
VERTEX
  5
29C
100
AcDbEntity
  8
C1
100
AcDbVertex
100
AcDb2dVertex
 10
20.922117
 20
23.945231
 30
0.0
  0
VERTEX
  5
29D
100
AcDbEntity
  8
C1
100
AcDbVertex
100
AcDb2dVertex
 10
15.50785
 20
23.945231
 30
0.0
 42
-0.014455
  0
VERTEX
  5
29E
100
AcDbEntity
  8
C1
100
AcDbVertex
100
AcDb2dVertex
 10
15.601812
 20
24.051235
 30
0.0
 42
-0.009876
  0
VERTEX
  5
29F
100
AcDbEntity
  8
C1
100
AcDbVertex
100
AcDb2dVertex
 10
15.669464
 20
24.12046
 30
0.0
  0
SEQEND
  5
2A0
100
AcDbEntity
  8
C1
  0
INSERT
  5
2A1
100
AcDbEntity
  8
CT1
100
AcDbBlockReference
  2
S_OFF
 10
20.811092
 20
24.489107
 30
0.0
 41
-0.467277
 42
0.467277
 43
0.467277
 50
90.0
  0
INSERT
  5
2A2
100
AcDbEntity
  8
CT1
100
AcDbBlockReference
  2
P_ON
 10
21.631799
 20
24.107517
 30
0.0
 41
-0.467277
 42
0.467277
 43
0.467277
 50
90.0
  0
POLYLINE
  5
2A3
100
AcDbEntity
  8
C1
100
AcDb2dPolyline
 66
     1
 10
0.0
 20
0.0
 30
0.0
 70
     1
  0
VERTEX
  5
2A4
100
AcDbEntity
  8
C1
100
AcDbVertex
100
AcDb2dVertex
 10
21.642605
 20
24.12046
 30
0.0
  0
VERTEX
  5
2A5
100
AcDbEntity
  8
C1
100
AcDbVertex
100
AcDb2dVertex
 10
21.645521
 20
24.116681
 30
0.0
 42
-0.064079
  0
VERTEX
  5
2A6
100
AcDbEntity
  8
C1
100
AcDbVertex
100
AcDb2dVertex
 10
21.692241
 20
24.00957
 30
0.0
 42
-0.035983
  0
VERTEX
  5
2A7
100
AcDbEntity
  8
C1
100
AcDbVertex
100
AcDb2dVertex
 10
21.706048
 20
23.945231
 30
0.0
  0
VERTEX
  5
2A8
100
AcDbEntity
  8
C1
100
AcDbVertex
100
AcDb2dVertex
 10
21.36554
 20
23.945231
 30
0.0
 42
-0.04156
  0
VERTEX
  5
2A9
100
AcDbEntity
  8
C1
100
AcDbVertex
100
AcDb2dVertex
 10
21.377841
 20
23.987416
 30
0.0
 42
-0.127275
  0
VERTEX
  5
2AA
100
AcDbEntity
  8
C1
100
AcDbVertex
100
AcDb2dVertex
 10
21.442336
 20
24.07776
 30
0.0
 42
-0.033742
  0
VERTEX
  5
2AB
100
AcDbEntity
  8
C1
100
AcDbVertex
100
AcDb2dVertex
 10
21.50088
 20
24.12046
 30
0.0
  0
SEQEND
  5
2AC
100
AcDbEntity
  8
C1
  0
INSERT
  5
2AD
100
AcDbEntity
  8
CT1
100
AcDbBlockReference
  2
S_OFF
 10
21.528208
 20
23.843897
 30
0.0
 41
-0.467277
 42
0.467277
 43
0.467277
 50
90.0
  0
INSERT
  5
2AE
100
AcDbEntity
  8
CT1
100
AcDbBlockReference
  2
P_ON
 10
21.794977
 20
23.809488
 30
0.0
 41
-0.467277
 42
0.467277
 43
0.467277
 50
90.0
  0
POLYLINE
  5
2AF
100
AcDbEntity
  8
C1
100
AcDb2dPolyline
 66
     1
 10
0.0
 20
0.0
 30
0.0
 70
     1
  0
VERTEX
  5
2B0
100
AcDbEntity
  8
C1
100
AcDbVertex
100
AcDb2dVertex
 10
21.770801
 20
23.790143
 30
0.0
  0
VERTEX
  5
2B1
100
AcDbEntity
  8
C1
100
AcDbVertex
100
AcDb2dVertex
 10
21.776336
 20
23.881597
 30
0.0
 42
0.07095
  0
VERTEX
  5
2B2
100
AcDbEntity
  8
C1
100
AcDbVertex
100
AcDb2dVertex
 10
21.75546
 20
24.027977
 30
0.0
 42
0.065954
  0
VERTEX
  5
2B3
100
AcDbEntity
  8
C1
100
AcDbVertex
100
AcDb2dVertex
 10
21.699998
 20
24.153843
 30
0.0
 42
0.007968
  0
VERTEX
  5
2B4
100
AcDbEntity
  8
C1
100
AcDbVertex
100
AcDb2dVertex
 10
21.672899
 20
24.188138
 30
0.0
 42
-0.073063
  0
VERTEX
  5
2B5
100
AcDbEntity
  8
C1
100
AcDbVertex
100
AcDb2dVertex
 10
21.772351
 20
24.187545
 30
0.0
 42
-0.116386
  0
VERTEX
  5
2B6
100
AcDbEntity
  8
C1
100
AcDbVertex
100
AcDb2dVertex
 10
21.947486
 20
24.116871
 30
0.0
  0
VERTEX
  5
2B7
100
AcDbEntity
  8
C1
100
AcDbVertex
100
AcDb2dVertex
 10
22.004432
 20
24.048251
 30
0.0
 42
-0.011039
  0
VERTEX
  5
2B8
100
AcDbEntity
  8
C1
100
AcDbVertex
100
AcDb2dVertex
 10
22.003475
 20
24.036065
 30
0.0
 42
-0.058095
  0
VERTEX
  5
2B9
100
AcDbEntity
  8
C1
100
AcDbVertex
100
AcDb2dVertex
 10
21.98711
 20
23.961673
 30
0.0
 42
-0.062286
  0
VERTEX
  5
2BA
100
AcDbEntity
  8
C1
100
AcDbVertex
100
AcDb2dVertex
 10
21.954369
 20
23.895089
 30
0.0
 42
-0.072631
  0
VERTEX
  5
2BB
100
AcDbEntity
  8
C1
100
AcDbVertex
100
AcDb2dVertex
 10
21.912047
 20
23.847457
 30
0.0
 42
-0.053006
  0
VERTEX
  5
2BC
100
AcDbEntity
  8
C1
100
AcDbVertex
100
AcDb2dVertex
 10
21.878673
 20
23.824944
 30
0.0
 42
-0.034183
  0
VERTEX
  5
2BD
100
AcDbEntity
  8
C1
100
AcDbVertex
100
AcDb2dVertex
 10
21.821747
 20
23.799578
 30
0.0
 42
-0.084066
  0
SEQEND
  5
2BE
100
AcDbEntity
  8
C1
  0
INSERT
  5
2BF
100
AcDbEntity
  8
CT1
100
AcDbBlockReference
  2
S_OFF
 10
21.48934
 20
24.747579
 30
0.0
 41
-0.467277
 42
0.467277
 43
0.467277
 50
90.0
  0
INSERT
  5
2C0
100
AcDbEntity
  8
CT1
100
AcDbBlockReference
  2
P_ON
 10
22.208702
 20
24.10973
 30
0.0
 41
-0.467277
 42
0.467277
 43
0.467277
 50
90.0
  0
POLYLINE
  5
2C1
100
AcDbEntity
  8
C1
100
AcDb2dPolyline
 66
     1
 10
0.0
 20
0.0
 30
0.0
 70
     1
  0
VERTEX
  5
2C2
100
AcDbEntity
  8
C1
100
AcDbVertex
100
AcDb2dVertex
 10
22.243952
 20
24.12046
 30
0.0
  0
VERTEX
  5
2C3
100
AcDbEntity
  8
C1
100
AcDbVertex
100
AcDb2dVertex
 10
22.186528
 20
24.061446
 30
0.0
  0
VERTEX
  5
2C4
100
AcDbEntity
  8
C1
100
AcDbVertex
100
AcDb2dVertex
 10
22.056749
 20
23.964028
 30
0.0
 42
0.042234
  0
VERTEX
  5
2C5
100
AcDbEntity
  8
C1
100
AcDbVertex
100
AcDb2dVertex
 10
22.068987
 20
24.02946
 30
0.0
 42
0.030785
  0
VERTEX
  5
2C6
100
AcDbEntity
  8
C1
100
AcDbVertex
100
AcDb2dVertex
 10
22.070627
 20
24.071591
 30
0.0
  0
VERTEX
  5
2C7
100
AcDbEntity
  8
C1
100
AcDbVertex
100
AcDb2dVertex
 10
22.030072
 20
24.12046
 30
0.0
  0
SEQEND
  5
2C8
100
AcDbEntity
  8
C1
  0
INSERT
  5
2C9
100
AcDbEntity
  8
CT1
100
AcDbBlockReference
  2
S_OFF
 10
22.301683
 20
24.423031
 30
0.0
 41
-0.467277
 42
0.467277
 43
0.467277
 50
90.0
  0
INSERT
  5
2CA
100
AcDbEntity
  8
CT1
100
AcDbBlockReference
  2
P_ON
 10
24.279293
 20
24.177278
 30
0.0
 41
-0.467277
 42
0.467277
 43
0.467277
 50
90.0
  0
POLYLINE
  5
2CB
100
AcDbEntity
  8
C1
100
AcDb2dPolyline
 66
     1
 10
0.0
 20
0.0
 30
0.0
 70
     1
  0
VERTEX
  5
2CC
100
AcDbEntity
  8
C1
100
AcDbVertex
100
AcDb2dVertex
 10
24.30576
 20
24.165728
 30
0.0
  0
VERTEX
  5
2CD
100
AcDbEntity
  8
C1
100
AcDbVertex
100
AcDb2dVertex
 10
24.030845
 20
24.165728
 30
0.0
 42
0.046011
  0
VERTEX
  5
2CE
100
AcDbEntity
  8
C1
100
AcDbVertex
100
AcDb2dVertex
 10
23.937009
 20
24.285671
 30
0.0
 42
0.115
  0
VERTEX
  5
2CF
100
AcDbEntity
  8
C1
100
AcDbVertex
100
AcDb2dVertex
 10
23.702329
 20
24.441436
 30
0.0
 42
0.075025
  0
VERTEX
  5
2D0
100
AcDbEntity
  8
C1
100
AcDbVertex
100
AcDb2dVertex
 10
23.334316
 20
24.518801
 30
0.0
 42
0.156848
  0
VERTEX
  5
2D1
100
AcDbEntity
  8
C1
100
AcDbVertex
100
AcDb2dVertex
 10
23.156911
 20
24.472798
 30
0.0
 42
0.074701
  0
VERTEX
  5
2D2
100
AcDbEntity
  8
C1
100
AcDbVertex
100
AcDb2dVertex
 10
22.843453
 20
24.201178
 30
0.0
 42
-0.043152
  0
VERTEX
  5
2D3
100
AcDbEntity
  8
C1
100
AcDbVertex
100
AcDb2dVertex
 10
22.333331
 20
23.699669
 30
0.0
 42
-0.011024
  0
VERTEX
  5
2D4
100
AcDbEntity
  8
C1
100
AcDbVertex
100
AcDb2dVertex
 10
22.061352
 20
23.484817
 30
0.0
 42
-0.014485
  0
VERTEX
  5
2D5
100
AcDbEntity
  8
C1
100
AcDbVertex
100
AcDb2dVertex
 10
21.846274
 20
23.332057
 30
0.0
 42
-0.297483
  0
VERTEX
  5
2D6
100
AcDbEntity
  8
C1
100
AcDbVertex
100
AcDb2dVertex
 10
21.27702
 20
23.326188
 30
0.0
 42
-0.259779
  0
VERTEX
  5
2D7
100
AcDbEntity
  8
C1
100
AcDbVertex
100
AcDb2dVertex
 10
20.973606
 20
23.888929
 30
0.0
 42
-0.156517
  0
VERTEX
  5
2D8
100
AcDbEntity
  8
C1
100
AcDbVertex
100
AcDb2dVertex
 10
21.093671
 20
24.246035
 30
0.0
 42
-0.173005
  0
VERTEX
  5
2D9
100
AcDbEntity
  8
C1
100
AcDbVertex
100
AcDb2dVertex
 10
21.37776
 20
24.437618
 30
0.0
 42
-0.16597
  0
VERTEX
  5
2DA
100
AcDbEntity
  8
C1
100
AcDbVertex
100
AcDb2dVertex
 10
21.723527
 20
24.410511
 30
0.0
 42
-0.136736
  0
VERTEX
  5
2DB
100
AcDbEntity
  8
C1
100
AcDbVertex
100
AcDb2dVertex
 10
21.94841
 20
24.22904
 30
0.0
 42
0.045847
  0
VERTEX
  5
2DC
100
AcDbEntity
  8
C1
100
AcDbVertex
100
AcDb2dVertex
 10
21.860471
 20
24.25762
 30
0.0
 42
0.118305
  0
VERTEX
  5
2DD
100
AcDbEntity
  8
C1
100
AcDbVertex
100
AcDb2dVertex
 10
21.629197
 20
24.254631
 30
0.0
 42
0.118341
  0
VERTEX
  5
2DE
100
AcDbEntity
  8
C1
100
AcDbVertex
100
AcDb2dVertex
 10
21.376467
 20
24.121761
 30
0.0
 42
0.176537
  0
VERTEX
  5
2DF
100
AcDbEntity
  8
C1
100
AcDbVertex
100
AcDb2dVertex
 10
21.282857
 20
23.951106
 30
0.0
 42
0.172182
  0
VERTEX
  5
2E0
100
AcDbEntity
  8
C1
100
AcDbVertex
100
AcDb2dVertex
 10
21.322264
 20
23.744844
 30
0.0
 42
0.179297
  0
VERTEX
  5
2E1
100
AcDbEntity
  8
C1
100
AcDbVertex
100
AcDb2dVertex
 10
21.478662
 20
23.616765
 30
0.0
 42
0.130386
  0
VERTEX
  5
2E2
100
AcDbEntity
  8
C1
100
AcDbVertex
100
AcDb2dVertex
 10
21.738387
 20
23.598022
 30
0.0
 42
0.142953
  0
VERTEX
  5
2E3
100
AcDbEntity
  8
C1
100
AcDbVertex
100
AcDb2dVertex
 10
21.950721
 20
23.706214
 30
0.0
 42
0.035573
  0
VERTEX
  5
2E4
100
AcDbEntity
  8
C1
100
AcDbVertex
100
AcDb2dVertex
 10
22.152142
 20
23.924844
 30
0.0
 42
-0.028766
  0
VERTEX
  5
2E5
100
AcDbEntity
  8
C1
100
AcDbVertex
100
AcDb2dVertex
 10
22.397418
 20
24.198453
 30
0.0
 42
-0.012038
  0
VERTEX
  5
2E6
100
AcDbEntity
  8
C1
100
AcDbVertex
100
AcDb2dVertex
 10
22.755063
 20
24.537259
 30
0.0
 42
-0.023265
  0
VERTEX
  5
2E7
100
AcDbEntity
  8
C1
100
AcDbVertex
100
AcDb2dVertex
 10
22.952107
 20
24.699146
 30
0.0
 42
-0.108568
  0
VERTEX
  5
2E8
100
AcDbEntity
  8
C1
100
AcDbVertex
100
AcDb2dVertex
 10
23.146563
 20
24.787141
 30
0.0
 42
-0.070467
  0
VERTEX
  5
2E9
100
AcDbEntity
  8
C1
100
AcDbVertex
100
AcDb2dVertex
 10
23.472435
 20
24.80932
 30
0.0
 42
-0.100454
  0
VERTEX
  5
2EA
100
AcDbEntity
  8
C1
100
AcDbVertex
100
AcDb2dVertex
 10
23.735484
 20
24.735675
 30
0.0
 42
-0.064349
  0
VERTEX
  5
2EB
100
AcDbEntity
  8
C1
100
AcDbVertex
100
AcDb2dVertex
 10
24.084939
 20
24.495705
 30
0.0
 42
-0.079836
  0
VERTEX
  5
2EC
100
AcDbEntity
  8
C1
100
AcDbVertex
100
AcDb2dVertex
 10
24.234753
 20
24.310899
 30
0.0
 42
-0.033488
  0
SEQEND
  5
2ED
100
AcDbEntity
  8
C1
  0
INSERT
  5
2EE
100
AcDbEntity
  8
CT1
100
AcDbBlockReference
  2
S_OFF
 10
24.264407
 20
24.64149
 30
0.0
 41
-0.467277
 42
0.467277
 43
0.467277
 50
90.0
  0
ENDBLK
  5
2EF
100
AcDbEntity
  8
BASE
100
AcDbBlockEnd
  0
BLOCK
  5
2F0
100
AcDbEntity
  8
0
100
AcDbBlockBegin
  2
END
 70
    64
 10
-2.0
 20
11.0
 30
0.0
  3
END
  1

  0
TEXT
  5
2F1
100
AcDbEntity
  8
0
100
AcDbText
 10
-2.0
 20
11.0
 30
0.0
 40
0.05
  1
GRST
100
AcDbText
  0
TEXT
  5
2F2
100
AcDbEntity
  8
0
100
AcDbText
 10
-2.00095
 20
10.914299
 30
0.0
 40
0.05
  1
LOAD
100
AcDbText
  0
TEXT
  5
2F3
100
AcDbEntity
  8
0
100
AcDbText
 10
-2.00095
 20
10.830965
 30
0.0
 40
0.05
  1
ENDP
100
AcDbText
  0
ENDBLK
  5
2F4
100
AcDbEntity
  8
0
100
AcDbBlockEnd
  0
BLOCK
  5
2F5
100
AcDbEntity
  8
0
100
AcDbBlockBegin
  2
MOVE_S1
 70
    64
 10
-5.968676
 20
8.809298
 30
0.0
  3
MOVE_S1
  1

  0
TEXT
  5
2F6
100
AcDbEntity
  8
0
100
AcDbText
 10
-5.968676
 20
8.809298
 30
0.0
 40
0.05
  1
ABS
100
AcDbText
  0
TEXT
  5
2F7
100
AcDbEntity
  8
0
100
AcDbText
 10
-5.970831
 20
8.737451
 30
0.0
 40
0.05
  1
MOVE_SPIN1
100
AcDbText
  0
TEXT
  5
2F8
100
AcDbEntity
  8
0
100
AcDbText
 10
-5.968676
 20
8.662929
 30
0.0
 40
0.05
  1
INCR
100
AcDbText
  0
TEXT
  5
2F9
100
AcDbEntity
  8
0
100
AcDbText
 10
-5.965765
 20
8.585481
 30
0.0
 40
0.05
  1
SPWR
100
AcDbText
  0
TEXT
  5
2FA
100
AcDbEntity
  8
0
100
AcDbText
 10
-5.965765
 20
8.502147
 30
0.0
 40
0.05
  1
S1
100
AcDbText
  0
ENDBLK
  5
2FB
100
AcDbEntity
  8
0
100
AcDbBlockEnd
  0
BLOCK
  5
2FC
100
AcDbEntity
  8
0
100
AcDbBlockBegin
  2
ABSHEAD
 70
    64
 10
-3.930861
 20
10.990221
 30
0.0
  3
ABSHEAD
  1

  0
TEXT
  5
2FD
100
AcDbEntity
  8
0
100
AcDbText
 10
-3.931132
 20
10.985481
 30
0.0
 40
0.05
  1
MFLY_OFF
100
AcDbText
  0
TEXT
  5
2FE
100
AcDbEntity
  8
0
100
AcDbText
 10
-3.925589
 20
10.910246
 30
0.0
 40
0.05
  1
ABS
100
AcDbText
  0
TEXT
  5
2FF
100
AcDbEntity
  8
0
100
AcDbText
 10
-3.925255
 20
10.840925
 30
0.0
 40
0.05
  1
MOVE_SPIN1
100
AcDbText
  0
TEXT
  5
300
100
AcDbEntity
  8
0
100
AcDbText
 10
-3.921961
 20
10.75321
 30
0.0
 40
0.05
  1
GRST
100
AcDbText
  0
TEXT
  5
301
100
AcDbEntity
  8
0
100
AcDbText
 10
-3.918603
 20
10.673425
 30
0.0
 40
0.05
  1
RAPID
100
AcDbText
  0
ENDBLK
  5
302
100
AcDbEntity
  8
0
100
AcDbBlockEnd
  0
BLOCK
  5
303
100
AcDbEntity
  8
0
100
AcDbBlockBegin
  2
CALL_PT
 70
    64
 10
0.0
 20
0.0
 30
0.0
  3
CALL_PT
  1

  0
TEXT
  5
304
100
AcDbEntity
  8
0
100
AcDbText
 10
-0.01565
 20
-0.003449
 30
0.0
 40
0.007163
  1
RAPID
100
AcDbText
  0
POINT
  5
305
100
AcDbEntity
  8
0
100
AcDbPoint
 10
-0.000032
 20
0.00018
 30
0.0
  0
ENDBLK
  5
306
100
AcDbEntity
  8
0
100
AcDbBlockEnd
  0
BLOCK
  5
307
100
AcDbEntity
  8
BASE
100
AcDbBlockBegin
  2
SEQ_BASE
 70
    64
 10
0.0
 20
0.0
 30
0.0
  3
SEQ_BASE
  1

  0
INSERT
  5
308
100
AcDbEntity
  8
BASE
100
AcDbBlockReference
  2
ABSHEAD
 10
-55.579428
 20
-25.728823
 30
0.0
  0
TEXT
  5
309
100
AcDbEntity
  8
BASE
100
AcDbText
 10
-61.125
 20
-24.375
 30
0.0
 40
0.875
  1
PROGRAM,COREX63Y27.625T1
100
AcDbText
  0
TEXT
  5
30A
100
AcDbEntity
  8
BASE
100
AcDbText
 10
-29.375
 20
-11.0
 30
0.0
 40
0.875
  1
PROGRAM,  STR-X.5
100
AcDbText
  0
TEXT
  5
30B
100
AcDbEntity
  8
BASE
100
AcDbText
 10
-29.375
 20
-12.458333
 30
0.0
 40
0.875
  1
PROGRAM,  STR-Y.5
100
AcDbText
  0
POINT
  5
30C
100
AcDbEntity
  8
BASE
100
AcDbPoint
 10
-31.5
 20
-14.8125
 30
0.0
  0
TEXT
  5
30D
100
AcDbEntity
  8
BASE
100
AcDbText
 10
-29.375
 20
-13.916667
 30
0.0
 40
0.875
  1
PROGRAM,  STR-X1.0
100
AcDbText
  0
TEXT
  5
30E
100
AcDbEntity
  8
BASE
100
AcDbText
 10
-29.375
 20
-15.375
 30
0.0
 40
0.875
  1
PROGRAM,  STR-Y1.0
100
AcDbText
  0
INSERT
  5
30F
100
AcDbEntity
  8
BASE
100
AcDbBlockReference
  2
CALL_PT
 10
-63.0
 20
-28.625
 30
0.0
  0
TEXT
  5
310
100
AcDbEntity
  8
BASE
100
AcDbText
 10
-38.375
 20
-31.75
 30
0.0
 40
0.875
  1
PROGRAM,  STR+X1
100
AcDbText
  0
LINE
  5
311
100
AcDbEntity
  8
BASE
100
AcDbLine
 10
-63.0
 20
-28.625
 30
0.0
 11
0.0
 21
-28.625
 31
0.0
  0
TEXT
  5
312
100
AcDbEntity
  8
BASE
100
AcDbText
 10
0.75
 20
-15.25
 30
0.0
 40
0.875
  1
PROGRAM,  STR+Y1
100
AcDbText
  0
LINE
  5
313
100
AcDbEntity
  8
BASE
100
AcDbLine
 10
0.0
 20
-28.625
 30
0.0
 11
0.0
 21
-1.0
 31
0.0
  0
TEXT
  5
314
100
AcDbEntity
  8
BASE
100
AcDbText
 10
-38.625
 20
-4.25
 30
0.0
 40
0.875
  1
PROGRAM,  STR-X1
100
AcDbText
  0
LINE
  5
315
100
AcDbEntity
  8
BASE
100
AcDbLine
 10
0.0
 20
-1.0
 30
0.0
 11
-63.0
 21
-1.0
 31
0.0
  0
TEXT
  5
316
100
AcDbEntity
  8
BASE
100
AcDbText
 10
-60.75
 20
-15.625
 30
0.0
 40
0.875
  1
PROGRAM,  STR-Y1
100
AcDbText
  0
POLYLINE
  5
317
100
AcDbEntity
  8
BASE
100
AcDb2dPolyline
 66
     1
 10
0.0
 20
0.0
 30
0.0
  0
VERTEX
  5
318
100
AcDbEntity
  8
BASE
100
AcDbVertex
100
AcDb2dVertex
 10
-63.0
 20
-1.0
 30
0.0
  0
VERTEX
  5
319
100
AcDbEntity
  8
BASE
100
AcDbVertex
100
AcDb2dVertex
 10
-63.0
 20
-28.625
 30
0.0
  0
SEQEND
  5
31A
100
AcDbEntity
  8
BASE
  0
TEXT
  5
31B
100
AcDbEntity
  8
BASE
100
AcDbText
 10
-51.463846
 20
-26.736626
 30
0.0
 40
1.328166
  1
PROGRAM,P1  ***3085AS-1***
100
AcDbText
  0
INSERT
  5
31C
100
AcDbEntity
  8
BASE
100
AcDbBlockReference
  2
END
 10
-53.573159
 20
-30.898822
 30
0.0
  0
ENDBLK
  5
31D
100
AcDbEntity
  8
BASE
100
AcDbBlockEnd
  0
BLOCK
  5
31E
100
AcDbEntity
  8
CT1
100
AcDbBlockBegin
  2
SEQ_CT1
 70
    64
 10
0.0
 20
0.0
 30
0.0
  3
SEQ_CT1
  1

  0
INSERT
  5
31F
100
AcDbEntity
  8
CT1
100
AcDbBlockReference
  2
MOVE_S1
 10
5.407686
 20
-4.485789
 30
0.0
 41
-1.118266
 42
1.118266
 43
1.118266
 50
180.0
  0
TEXT
  5
320
100
AcDbEntity
  8
CT1
100
AcDbText
 10
5.267091
 20
-6.019156
 30
0.0
 40
0.557733
  1
RAPID
100
AcDbText
  0
TEXT
  5
321
100
AcDbEntity
  8
CT1
100
AcDbText
 10
23.622397
 20
16.696554
 30
0.0
 40
0.407019
  1
PROGRAM,  STR+Y.5
100
AcDbText
  0
TEXT
  5
322
100
AcDbEntity
  8
CT1
100
AcDbText
 10
23.622397
 20
16.01819
 30
0.0
 40
0.407019
  1
PROGRAM,  STR+X.5
100
AcDbText
  0
POINT
  5
323
100
AcDbEntity
  8
CT1
100
AcDbPoint
 10
31.5
 20
13.802924
 30
0.0
  0
TEXT
  5
324
100
AcDbEntity
  8
CT1
100
AcDbText
 10
23.622397
 20
15.339825
 30
0.0
 40
0.407019
  1
PROGRAM,  STR-Y.5
100
AcDbText
  0
TEXT
  5
325
100
AcDbEntity
  8
CT1
100
AcDbText
 10
23.622397
 20
14.661461
 30
0.0
 40
0.407019
  1
PROGRAM,  STR-X.5
100
AcDbText
  0
INSERT
  5
326
100
AcDbEntity
  8
C1
100
AcDbBlockReference
  2
BORDER
 10
0.0
 20
0.0
 30
0.0
  0
INSERT
  5
327
100
AcDbEntity
  8
C1
100
AcDbBlockReference
  2
FLOWER2
 10
0.0
 20
0.0
 30
0.0
  0
INSERT
  5
328
100
AcDbEntity
  8
C1
100
AcDbBlockReference
  2
FLOWER
 10
0.0
 20
0.0
 30
0.0
  0
INSERT
  5
329
100
AcDbEntity
  8
C1
100
AcDbBlockReference
  2
FLOWER3
 10
0.0
 20
0.0
 30
0.0
  0
ENDBLK
  5
32A
100
AcDbEntity
  8
CT1
100
AcDbBlockEnd
  0
BLOCK
  5
32B
100
AcDbEntity
  8
C1
100
AcDbBlockBegin
  2
BORDER
 70
    64
 10
0.0
 20
0.0
 30
0.0
  3
BORDER
  1

  0
INSERT
  5
32C
100
AcDbEntity
  8
CT1
100
AcDbBlockReference
  2
P_ON
 10
15.823149
 20
2.067775
 30
0.0
 41
-1.0
 50
180.0
  0
LINE
  5
32D
100
AcDbEntity
  8
C1
100
AcDbLine
 10
15.875
 20
2.0
 30
0.0
 11
14.0
 21
2.0
 31
0.0
  0
TEXT
  5
32E
100
AcDbEntity
  8
CT1
100
AcDbText
 10
5.125
 20
16.761757
 30
0.0
 40
0.875
  1
PROGRAM,  STR+Y1
100
AcDbText
  0
ARC
  5
32F
100
AcDbEntity
  8
C1
100
AcDbCircle
 10
14.0
 20
13.807962
 30
0.0
 40
11.807962
100
AcDbArc
 50
90.0
 51
270.0
  0
TEXT
  5
330
100
AcDbEntity
  8
CT1
100
AcDbText
 10
27.618978
 20
23.764512
 30
0.0
 40
0.797882
  1
PROGRAM,  STR+X1
100
AcDbText
  0
LINE
  5
331
100
AcDbEntity
  8
C1
100
AcDbLine
 10
14.0
 20
25.615924
 30
0.0
 11
61.0
 21
25.615924
 31
0.0
  0
TEXT
  5
332
100
AcDbEntity
  8
CT1
100
AcDbText
 10
59.847879
 20
13.020305
 30
0.0
 40
0.797882
  1
PROGRAM,  STR-Y1
100
AcDbText
  0
LINE
  5
333
100
AcDbEntity
  8
C1
100
AcDbLine
 10
61.0
 20
25.615924
 30
0.0
 11
61.0
 21
1.960868
 31
0.0
  0
TEXT
  5
334
100
AcDbEntity
  8
CT1
100
AcDbText
 10
55.506109
 20
-0.064803
 30
0.0
 40
0.797882
  1
PROGRAM,  STR-X1
100
AcDbText
  0
LINE
  5
335
100
AcDbEntity
  8
C1
100
AcDbLine
 10
61.0
 20
1.960868
 30
0.0
 11
49.882725
 21
1.960868
 31
0.0
  0
ARC
  5
336
100
AcDbEntity
  8
C1
100
AcDbCircle
 10
63.049977
 20
15.481215
 30
0.0
 40
18.873416
100
AcDbArc
 50
224.280817
 51
224.325191
  0
ARC
  5
337
100
AcDbEntity
  8
C1
100
AcDbCircle
 10
55.498631
 20
8.105681
 30
0.0
 40
8.317786
100
AcDbArc
 50
224.325191
 51
225.240109
  0
ARC
  5
338
100
AcDbEntity
  8
C1
100
AcDbCircle
 10
244.91296
 20
199.114257
 30
0.0
 40
277.319764
100
AcDbArc
 50
225.240109
 51
225.310178
  0
TEXT
  5
339
100
AcDbEntity
  8
CT1
100
AcDbText
 10
55.506109
 20
1.265
 30
0.0
 40
0.797882
  1
PROGRAM,  STR+X1
100
AcDbText
  0
LINE
  5
33A
100
AcDbEntity
  8
C1
100
AcDbLine
 10
49.537998
 20
2.304256
 30
0.0
 11
60.656612
 21
2.304256
 31
0.0
  0
TEXT
  5
33B
100
AcDbEntity
  8
CT1
100
AcDbText
 10
59.847879
 20
11.690502
 30
0.0
 40
0.797882
  1
PROGRAM,  STR+Y1
100
AcDbText
  0
LINE
  5
33C
100
AcDbEntity
  8
C1
100
AcDbLine
 10
60.656612
 20
2.304256
 30
0.0
 11
60.656612
 21
25.240924
 31
0.0
  0
TEXT
  5
33D
100
AcDbEntity
  8
CT1
100
AcDbText
 10
27.618978
 20
25.094315
 30
0.0
 40
0.797882
  1
PROGRAM,  STR-X1
100
AcDbText
  0
LINE
  5
33E
100
AcDbEntity
  8
C1
100
AcDbLine
 10
60.656612
 20
25.240924
 30
0.0
 11
14.0
 21
25.240924
 31
0.0
  0
TEXT
  5
33F
100
AcDbEntity
  8
CT1
100
AcDbText
 10
5.125
 20
18.220091
 30
0.0
 40
0.875
  1
PROGRAM,  STR-Y1
100
AcDbText
  0
ARC
  5
340
100
AcDbEntity
  8
C1
100
AcDbCircle
 10
14.0
 20
13.792357
 30
0.0
 40
11.448567
100
AcDbArc
 50
90.0
 51
270.0
  0
POLYLINE
  5
341
100
AcDbEntity
  8
C1
100
AcDb2dPolyline
 66
     1
 10
0.0
 20
0.0
 30
0.0
  0
VERTEX
  5
342
100
AcDbEntity
  8
C1
100
AcDbVertex
100
AcDb2dVertex
 10
14.0
 20
2.343789
 30
0.0
  0
VERTEX
  5
343
100
AcDbEntity
  8
C1
100
AcDbVertex
100
AcDb2dVertex
 10
15.875
 20
2.343789
 30
0.0
  0
VERTEX
  5
344
100
AcDbEntity
  8
C1
100
AcDbVertex
100
AcDb2dVertex
 10
15.875
 20
2.0
 30
0.0
  0
SEQEND
  5
345
100
AcDbEntity
  8
C1
  0
INSERT
  5
346
100
AcDbEntity
  8
CT1
100
AcDbBlockReference
  2
S_OFF
 10
15.123527
 20
2.585875
 30
0.0
 41
-1.0
 50
180.0
  0
ENDBLK
  5
347
100
AcDbEntity
  8
C1
100
AcDbBlockEnd
  0
BLOCK
  5
348
100
AcDbEntity
  8
CT1
100
AcDbBlockBegin
  2
KEY
 70
    64
 10
0.0
 20
0.0
 30
0.0
  3
KEY
  1

  0
POLYLINE
  5
349
100
AcDbEntity
  8
BORDER
100
AcDb2dPolyline
 66
     1
 10
0.0
 20
0.0
 30
0.0
  0
VERTEX
  5
34A
100
AcDbEntity
  8
BORDER
100
AcDbVertex
100
AcDb2dVertex
 10
42.041778
 20
-32.221675
 30
0.0
  0
VERTEX
  5
34B
100
AcDbEntity
  8
BORDER
100
AcDbVertex
100
AcDb2dVertex
 10
69.621075
 20
-32.221675
 30
0.0
  0
SEQEND
  5
34C
100
AcDbEntity
  8
BORDER
  0
POLYLINE
  5
34D
100
AcDbEntity
  8
BORDER
100
AcDb2dPolyline
 66
     1
 10
0.0
 20
0.0
 30
0.0
  0
VERTEX
  5
34E
100
AcDbEntity
  8
BORDER
100
AcDbVertex
100
AcDb2dVertex
 10
42.041778
 20
-30.612425
 30
0.0
  0
VERTEX
  5
34F
100
AcDbEntity
  8
BORDER
100
AcDbVertex
100
AcDb2dVertex
 10
69.551575
 20
-30.612425
 30
0.0
  0
SEQEND
  5
350
100
AcDbEntity
  8
BORDER
  0
POLYLINE
  5
351
100
AcDbEntity
  8
BORDER
100
AcDb2dPolyline
 66
     1
 10
0.0
 20
0.0
 30
0.0
  0
VERTEX
  5
352
100
AcDbEntity
  8
BORDER
100
AcDbVertex
100
AcDb2dVertex
 10
56.808955
 20
-28.999574
 30
0.0
  0
VERTEX
  5
353
100
AcDbEntity
  8
BORDER
100
AcDbVertex
100
AcDb2dVertex
 10
69.551575
 20
-28.999574
 30
0.0
  0
SEQEND
  5
354
100
AcDbEntity
  8
BORDER
  0
POLYLINE
  5
355
100
AcDbEntity
  8
BORDER
100
AcDb2dPolyline
 66
     1
 10
0.0
 20
0.0
 30
0.0
  0
VERTEX
  5
356
100
AcDbEntity
  8
BORDER
100
AcDbVertex
100
AcDb2dVertex
 10
56.884498
 20
-26.691903
 30
0.0
  0
VERTEX
  5
357
100
AcDbEntity
  8
BORDER
100
AcDbVertex
100
AcDb2dVertex
 10
63.072994
 20
-26.691903
 30
0.0
  0
SEQEND
  5
358
100
AcDbEntity
  8
BORDER
  0
POLYLINE
  5
359
100
AcDbEntity
  8
BORDER
100
AcDb2dPolyline
 66
     1
 10
0.0
 20
0.0
 30
0.0
  0
VERTEX
  5
35A
100
AcDbEntity
  8
BORDER
100
AcDbVertex
100
AcDb2dVertex
 10
57.026519
 20
-25.485865
 30
0.0
  0
VERTEX
  5
35B
100
AcDbEntity
  8
BORDER
100
AcDbVertex
100
AcDb2dVertex
 10
67.052607
 20
-25.485865
 30
0.0
  0
SEQEND
  5
35C
100
AcDbEntity
  8
BORDER
  0
POLYLINE
  5
35D
100
AcDbEntity
  8
BORDER
100
AcDb2dPolyline
 66
     1
 10
0.0
 20
0.0
 30
0.0
  0
VERTEX
  5
35E
100
AcDbEntity
  8
BORDER
100
AcDbVertex
100
AcDb2dVertex
 10
57.026721
 20
-24.176832
 30
0.0
  0
VERTEX
  5
35F
100
AcDbEntity
  8
BORDER
100
AcDbVertex
100
AcDb2dVertex
 10
63.026721
 20
-24.176832
 30
0.0
  0
SEQEND
  5
360
100
AcDbEntity
  8
BORDER
  0
POLYLINE
  5
361
100
AcDbEntity
  8
BORDER
100
AcDb2dPolyline
 66
     1
 10
0.0
 20
0.0
 30
0.0
  0
VERTEX
  5
362
100
AcDbEntity
  8
BORDER
100
AcDbVertex
100
AcDb2dVertex
 10
42.008539
 20
-17.607874
 30
0.0
  0
VERTEX
  5
363
100
AcDbEntity
  8
BORDER
100
AcDbVertex
100
AcDb2dVertex
 10
69.621075
 20
-17.607874
 30
0.0
  0
SEQEND
  5
364
100
AcDbEntity
  8
BORDER
  0
POLYLINE
  5
365
100
AcDbEntity
  8
BORDER
100
AcDb2dPolyline
 66
     1
 10
0.0
 20
0.0
 30
0.0
  0
VERTEX
  5
366
100
AcDbEntity
  8
BORDER
100
AcDbVertex
100
AcDb2dVertex
 10
47.921726
 20
-1.529211
 30
0.0
  0
VERTEX
  5
367
100
AcDbEntity
  8
BORDER
100
AcDbVertex
100
AcDb2dVertex
 10
53.421726
 20
-1.529211
 30
0.0
  0
SEQEND
  5
368
100
AcDbEntity
  8
BORDER
  0
POLYLINE
  5
369
100
AcDbEntity
  8
BORDER
100
AcDb2dPolyline
 66
     1
 10
0.0
 20
0.0
 30
0.0
  0
VERTEX
  5
36A
100
AcDbEntity
  8
BORDER
100
AcDbVertex
100
AcDb2dVertex
 10
47.921726
 20
-2.698589
 30
0.0
  0
VERTEX
  5
36B
100
AcDbEntity
  8
BORDER
100
AcDbVertex
100
AcDb2dVertex
 10
53.421726
 20
-2.698589
 30
0.0
  0
SEQEND
  5
36C
100
AcDbEntity
  8
BORDER
  0
POLYLINE
  5
36D
100
AcDbEntity
  8
BORDER
100
AcDb2dPolyline
 66
     1
 10
0.0
 20
0.0
 30
0.0
  0
VERTEX
  5
36E
100
AcDbEntity
  8
BORDER
100
AcDbVertex
100
AcDb2dVertex
 10
47.832987
 20
-3.96157
 30
0.0
  0
VERTEX
  5
36F
100
AcDbEntity
  8
BORDER
100
AcDbVertex
100
AcDb2dVertex
 10
53.457987
 20
-3.96157
 30
0.0
  0
SEQEND
  5
370
100
AcDbEntity
  8
BORDER
  0
POLYLINE
  5
371
100
AcDbEntity
  8
BORDER
100
AcDb2dPolyline
 66
     1
 10
0.0
 20
0.0
 30
0.0
  0
VERTEX
  5
372
100
AcDbEntity
  8
BORDER
100
AcDbVertex
100
AcDb2dVertex
 10
47.793704
 20
-5.190142
 30
0.0
  0
VERTEX
  5
373
100
AcDbEntity
  8
BORDER
100
AcDbVertex
100
AcDb2dVertex
 10
53.418704
 20
-5.190142
 30
0.0
  0
SEQEND
  5
374
100
AcDbEntity
  8
BORDER
  0
TEXT
  5
375
100
AcDbEntity
  8
BORDER
100
AcDbText
 10
41.05932
 20
-5.215126
 30
0.0
 40
0.75
  1
Opt 2
100
AcDbText
  0
TEXT
  5
376
100
AcDbEntity
  8
BORDER
100
AcDbText
 10
41.05932
 20
-3.965126
 30
0.0
 40
0.75
  1
Opt 1
100
AcDbText
  0
TEXT
  5
377
100
AcDbEntity
  8
BORDER
100
AcDbText
 10
41.05932
 20
-2.715126
 30
0.0
 40
0.75
  1
Y Scale
100
AcDbText
  0
TEXT
  5
378
100
AcDbEntity
  8
BORDER
100
AcDbText
 10
41.05932
 20
-1.465126
 30
0.0
 40
0.75
  1
X Scale
100
AcDbText
  0
TEXT
  5
379
100
AcDbEntity
  8
BORDER
100
AcDbText
 10
41.05932
 20
-0.215126
 30
0.0
 40
0.75
  1
Right
100
AcDbText
  0
TEXT
  5
37A
100
AcDbEntity
  8
BORDER
100
AcDbText
 10
41.05932
 20
1.034874
 30
0.0
 40
0.75
  1
Left
100
AcDbText
  0
TEXT
  5
37B
100
AcDbEntity
  8
BORDER
100
AcDbText
 10
41.05932
 20
2.284874
 30
0.0
 40
0.75
  1
Bottom
100
AcDbText
  0
TEXT
  5
37C
100
AcDbEntity
  8
BORDER
100
AcDbText
 10
41.05932
 20
3.534874
 30
0.0
 40
0.75
  1
Top
100
AcDbText
  0
TEXT
  5
37D
100
AcDbEntity
  8
BORDER
100
AcDbText
 10
41.05932
 20
4.784874
 30
0.0
 40
0.75
  1
Auto Size
100
AcDbText
  0
POLYLINE
  5
37E
100
AcDbEntity
  8
BORDER
100
AcDb2dPolyline
 66
     1
 10
0.0
 20
0.0
 30
0.0
  0
VERTEX
  5
37F
100
AcDbEntity
  8
BORDER
100
AcDbVertex
100
AcDb2dVertex
 10
47.793704
 20
-0.275989
 30
0.0
  0
VERTEX
  5
380
100
AcDbEntity
  8
BORDER
100
AcDbVertex
100
AcDb2dVertex
 10
53.418704
 20
-0.275989
 30
0.0
  0
SEQEND
  5
381
100
AcDbEntity
  8
BORDER
  0
POLYLINE
  5
382
100
AcDbEntity
  8
BORDER
100
AcDb2dPolyline
 66
     1
 10
0.0
 20
0.0
 30
0.0
  0
VERTEX
  5
383
100
AcDbEntity
  8
BORDER
100
AcDbVertex
100
AcDb2dVertex
 10
47.832987
 20
0.952583
 30
0.0
  0
VERTEX
  5
384
100
AcDbEntity
  8
BORDER
100
AcDbVertex
100
AcDb2dVertex
 10
53.457987
 20
0.952583
 30
0.0
  0
SEQEND
  5
385
100
AcDbEntity
  8
BORDER
  0
POLYLINE
  5
386
100
AcDbEntity
  8
BORDER
100
AcDb2dPolyline
 66
     1
 10
0.0
 20
0.0
 30
0.0
  0
VERTEX
  5
387
100
AcDbEntity
  8
BORDER
100
AcDbVertex
100
AcDb2dVertex
 10
47.921726
 20
2.215564
 30
0.0
  0
VERTEX
  5
388
100
AcDbEntity
  8
BORDER
100
AcDbVertex
100
AcDb2dVertex
 10
53.421726
 20
2.215564
 30
0.0
  0
SEQEND
  5
389
100
AcDbEntity
  8
BORDER
  0
POLYLINE
  5
38A
100
AcDbEntity
  8
BORDER
100
AcDb2dPolyline
 66
     1
 10
0.0
 20
0.0
 30
0.0
  0
VERTEX
  5
38B
100
AcDbEntity
  8
BORDER
100
AcDbVertex
100
AcDb2dVertex
 10
47.921726
 20
3.384942
 30
0.0
  0
VERTEX
  5
38C
100
AcDbEntity
  8
BORDER
100
AcDbVertex
100
AcDb2dVertex
 10
53.421726
 20
3.384942
 30
0.0
  0
SEQEND
  5
38D
100
AcDbEntity
  8
BORDER
  0
POLYLINE
  5
38E
100
AcDbEntity
  8
BORDER
100
AcDb2dPolyline
 66
     1
 10
0.0
 20
0.0
 30
0.0
  0
VERTEX
  5
38F
100
AcDbEntity
  8
BORDER
100
AcDbVertex
100
AcDb2dVertex
 10
47.935696
 20
4.679467
 30
0.0
  0
VERTEX
  5
390
100
AcDbEntity
  8
BORDER
100
AcDbVertex
100
AcDb2dVertex
 10
53.435696
 20
4.679467
 30
0.0
  0
SEQEND
  5
391
100
AcDbEntity
  8
BORDER
  0
POLYLINE
  5
392
100
AcDbEntity
  8
BORDER
100
AcDb2dPolyline
 66
     1
 10
0.0
 20
0.0
 30
0.0
  0
VERTEX
  5
393
100
AcDbEntity
  8
BORDER
100
AcDbVertex
100
AcDb2dVertex
 10
52.02264
 20
-19.609209
 30
0.0
  0
VERTEX
  5
394
100
AcDbEntity
  8
BORDER
100
AcDbVertex
100
AcDb2dVertex
 10
57.02264
 20
-19.609209
 30
0.0
  0
SEQEND
  5
395
100
AcDbEntity
  8
BORDER
  0
POLYLINE
  5
396
100
AcDbEntity
  8
BORDER
100
AcDb2dPolyline
 66
     1
 10
0.0
 20
0.0
 30
0.0
  0
VERTEX
  5
397
100
AcDbEntity
  8
BORDER
100
AcDbVertex
100
AcDb2dVertex
 10
52.081965
 20
-15.767096
 30
0.0
  0
VERTEX
  5
398
100
AcDbEntity
  8
BORDER
100
AcDbVertex
100
AcDb2dVertex
 10
69.581965
 20
-15.767096
 30
0.0
  0
SEQEND
  5
399
100
AcDbEntity
  8
BORDER
  0
POLYLINE
  5
39A
100
AcDbEntity
  8
BORDER
100
AcDb2dPolyline
 66
     1
 10
0.0
 20
0.0
 30
0.0
  0
VERTEX
  5
39B
100
AcDbEntity
  8
BORDER
100
AcDbVertex
100
AcDb2dVertex
 10
52.115204
 20
-13.655147
 30
0.0
  0
VERTEX
  5
39C
100
AcDbEntity
  8
BORDER
100
AcDbVertex
100
AcDb2dVertex
 10
69.615204
 20
-13.655147
 30
0.0
  0
SEQEND
  5
39D
100
AcDbEntity
  8
BORDER
  0
TEXT
  5
39E
100
AcDbEntity
  8
BORDER
100
AcDbText
 10
42.526721
 20
-28.954975
 30
0.0
 40
0.75
  1
Special Instructions:
100
AcDbText
  0
TEXT
  5
39F
100
AcDbEntity
  8
BORDER
100
AcDbText
 10
42.526721
 20
-26.654975
 30
0.0
 40
0.75
  1
Built in borders
100
AcDbText
  0
TEXT
  5
3A0
100
AcDbEntity
  8
BORDER
100
AcDbText
 10
42.526721
 20
-25.404975
 30
0.0
 40
0.75
  1
Core Size
100
AcDbText
  0
TEXT
  5
3A1
100
AcDbEntity
  8
BORDER
100
AcDbText
 10
42.526721
 20
-24.154975
 30
0.0
 40
0.75
  1
Scale=1 line width:
100
AcDbText
  0
TEXT
  5
3A2
100
AcDbEntity
  8
BORDER
100
AcDbText
 10
41.077032
 20
12.422704
 30
0.0
 40
0.75
  1
OPTI Settings:
100
AcDbText
  0
TEXT
  5
3A3
100
AcDbEntity
  8
BORDER
100
AcDbText
 10
42.040274
 20
-19.656814
 30
0.0
 40
0.75
  1
Drawing Type:
100
AcDbText
  0
TEXT
  5
3A4
100
AcDbEntity
  8
BORDER
100
AcDbText
 10
42.04221
 20
-15.709695
 30
0.0
 40
0.75
  1
Description:
100
AcDbText
  0
TEXT
  5
3A5
100
AcDbEntity
  8
BORDER
100
AcDbText
 10
42.150992
 20
-13.536959
 30
0.0
 40
0.75
  1
Source Prg. : 
100
AcDbText
  0
POLYLINE
  5
3A6
100
AcDbEntity
  8
BORDER
100
AcDb2dPolyline
 66
     1
 10
0.0
 20
0.0
 30
0.0
 70
     1
 40
0.25
 41
0.25
  0
VERTEX
  5
3A7
100
AcDbEntity
  8
BORDER
100
AcDbVertex
100
AcDb2dVertex
 10
39.776721
 20
-9.934138
 30
0.0
  0
VERTEX
  5
3A8
100
AcDbEntity
  8
BORDER
100
AcDbVertex
100
AcDb2dVertex
 10
71.401721
 20
-9.934138
 30
0.0
  0
VERTEX
  5
3A9
100
AcDbEntity
  8
BORDER
100
AcDbVertex
100
AcDb2dVertex
 10
71.401721
 20
-33.426832
 30
0.0
  0
VERTEX
  5
3AA
100
AcDbEntity
  8
BORDER
100
AcDbVertex
100
AcDb2dVertex
 10
39.776721
 20
-33.426832
 30
0.0
  0
SEQEND
  5
3AB
100
AcDbEntity
  8
BORDER
  0
TEXT
  5
3AC
100
AcDbEntity
  8
BORDER
100
AcDbText
 10
41.221908
 20
9.388631
 30
0.0
 40
1.29217
  1
SWING
100
AcDbText
  0
TEXT
  5
3AD
100
AcDbEntity
  8
BORDER
100
AcDbText
 10
41.221908
 20
7.235014
 30
0.0
 40
1.29217
  1
Hinge Left
100
AcDbText
  0
TEXT
  5
3AE
100
AcDbEntity
  8
BORDER
100
AcDbText
 10
55.246476
 20
7.269562
 30
0.0
 40
1.29217
  1
Hinge Right
100
AcDbText
  0
TEXT
  5
3AF
100
AcDbEntity
  8
BORDER
100
AcDbText
 10
86.657187
 20
9.061586
 30
0.0
 40
1.29217
  1
BYPASS
100
AcDbText
  0
TEXT
  5
3B0
100
AcDbEntity
  8
BORDER
100
AcDbText
 10
86.657187
 20
6.907969
 30
0.0
 40
1.29217
  1
Left
100
AcDbText
  0
TEXT
  5
3B1
100
AcDbEntity
  8
BORDER
100
AcDbText
 10
100.657187
 20
7.00169
 30
0.0
 40
1.29217
  1
Right
100
AcDbText
  0
POLYLINE
  5
3B2
100
AcDbEntity
  8
BORDER
100
AcDb2dPolyline
 66
     1
 10
0.0
 20
0.0
 30
0.0
  0
VERTEX
  5
3B3
100
AcDbEntity
  8
BORDER
100
AcDbVertex
100
AcDb2dVertex
 10
61.935696
 20
4.679467
 30
0.0
  0
VERTEX
  5
3B4
100
AcDbEntity
  8
BORDER
100
AcDbVertex
100
AcDb2dVertex
 10
67.435696
 20
4.679467
 30
0.0
  0
SEQEND
  5
3B5
100
AcDbEntity
  8
BORDER
  0
POLYLINE
  5
3B6
100
AcDbEntity
  8
BORDER
100
AcDb2dPolyline
 66
     1
 10
0.0
 20
0.0
 30
0.0
  0
VERTEX
  5
3B7
100
AcDbEntity
  8
BORDER
100
AcDbVertex
100
AcDb2dVertex
 10
61.921726
 20
3.384942
 30
0.0
  0
VERTEX
  5
3B8
100
AcDbEntity
  8
BORDER
100
AcDbVertex
100
AcDb2dVertex
 10
67.421726
 20
3.384942
 30
0.0
  0
SEQEND
  5
3B9
100
AcDbEntity
  8
BORDER
  0
POLYLINE
  5
3BA
100
AcDbEntity
  8
BORDER
100
AcDb2dPolyline
 66
     1
 10
0.0
 20
0.0
 30
0.0
  0
VERTEX
  5
3BB
100
AcDbEntity
  8
BORDER
100
AcDbVertex
100
AcDb2dVertex
 10
61.921726
 20
2.215564
 30
0.0
  0
VERTEX
  5
3BC
100
AcDbEntity
  8
BORDER
100
AcDbVertex
100
AcDb2dVertex
 10
67.421726
 20
2.215564
 30
0.0
  0
SEQEND
  5
3BD
100
AcDbEntity
  8
BORDER
  0
POLYLINE
  5
3BE
100
AcDbEntity
  8
BORDER
100
AcDb2dPolyline
 66
     1
 10
0.0
 20
0.0
 30
0.0
  0
VERTEX
  5
3BF
100
AcDbEntity
  8
BORDER
100
AcDbVertex
100
AcDb2dVertex
 10
61.832987
 20
0.952583
 30
0.0
  0
VERTEX
  5
3C0
100
AcDbEntity
  8
BORDER
100
AcDbVertex
100
AcDb2dVertex
 10
67.457987
 20
0.952583
 30
0.0
  0
SEQEND
  5
3C1
100
AcDbEntity
  8
BORDER
  0
POLYLINE
  5
3C2
100
AcDbEntity
  8
BORDER
100
AcDb2dPolyline
 66
     1
 10
0.0
 20
0.0
 30
0.0
  0
VERTEX
  5
3C3
100
AcDbEntity
  8
BORDER
100
AcDbVertex
100
AcDb2dVertex
 10
61.793704
 20
-0.275989
 30
0.0
  0
VERTEX
  5
3C4
100
AcDbEntity
  8
BORDER
100
AcDbVertex
100
AcDb2dVertex
 10
67.418704
 20
-0.275989
 30
0.0
  0
SEQEND
  5
3C5
100
AcDbEntity
  8
BORDER
  0
TEXT
  5
3C6
100
AcDbEntity
  8
BORDER
100
AcDbText
 10
55.05932
 20
4.784874
 30
0.0
 40
0.75
  1
Auto Size
100
AcDbText
  0
TEXT
  5
3C7
100
AcDbEntity
  8
BORDER
100
AcDbText
 10
55.05932
 20
3.534874
 30
0.0
 40
0.75
  1
Top
100
AcDbText
  0
TEXT
  5
3C8
100
AcDbEntity
  8
BORDER
100
AcDbText
 10
55.05932
 20
2.284874
 30
0.0
 40
0.75
  1
Bottom
100
AcDbText
  0
TEXT
  5
3C9
100
AcDbEntity
  8
BORDER
100
AcDbText
 10
55.05932
 20
1.034874
 30
0.0
 40
0.75
  1
Left
100
AcDbText
  0
TEXT
  5
3CA
100
AcDbEntity
  8
BORDER
100
AcDbText
 10
55.05932
 20
-0.215126
 30
0.0
 40
0.75
  1
Right
100
AcDbText
  0
TEXT
  5
3CB
100
AcDbEntity
  8
BORDER
100
AcDbText
 10
55.05932
 20
-1.465126
 30
0.0
 40
0.75
  1
X Scale
100
AcDbText
  0
TEXT
  5
3CC
100
AcDbEntity
  8
BORDER
100
AcDbText
 10
55.05932
 20
-2.715126
 30
0.0
 40
0.75
  1
Y Scale
100
AcDbText
  0
TEXT
  5
3CD
100
AcDbEntity
  8
BORDER
100
AcDbText
 10
55.05932
 20
-3.965126
 30
0.0
 40
0.75
  1
Opt 1
100
AcDbText
  0
TEXT
  5
3CE
100
AcDbEntity
  8
BORDER
100
AcDbText
 10
55.05932
 20
-5.215126
 30
0.0
 40
0.75
  1
Opt 2
100
AcDbText
  0
POLYLINE
  5
3CF
100
AcDbEntity
  8
BORDER
100
AcDb2dPolyline
 66
     1
 10
0.0
 20
0.0
 30
0.0
  0
VERTEX
  5
3D0
100
AcDbEntity
  8
BORDER
100
AcDbVertex
100
AcDb2dVertex
 10
61.793704
 20
-5.190142
 30
0.0
  0
VERTEX
  5
3D1
100
AcDbEntity
  8
BORDER
100
AcDbVertex
100
AcDb2dVertex
 10
67.418704
 20
-5.190142
 30
0.0
  0
SEQEND
  5
3D2
100
AcDbEntity
  8
BORDER
  0
POLYLINE
  5
3D3
100
AcDbEntity
  8
BORDER
100
AcDb2dPolyline
 66
     1
 10
0.0
 20
0.0
 30
0.0
  0
VERTEX
  5
3D4
100
AcDbEntity
  8
BORDER
100
AcDbVertex
100
AcDb2dVertex
 10
61.832987
 20
-3.96157
 30
0.0
  0
VERTEX
  5
3D5
100
AcDbEntity
  8
BORDER
100
AcDbVertex
100
AcDb2dVertex
 10
67.457987
 20
-3.96157
 30
0.0
  0
SEQEND
  5
3D6
100
AcDbEntity
  8
BORDER
  0
POLYLINE
  5
3D7
100
AcDbEntity
  8
BORDER
100
AcDb2dPolyline
 66
     1
 10
0.0
 20
0.0
 30
0.0
  0
VERTEX
  5
3D8
100
AcDbEntity
  8
BORDER
100
AcDbVertex
100
AcDb2dVertex
 10
61.921726
 20
-2.698589
 30
0.0
  0
VERTEX
  5
3D9
100
AcDbEntity
  8
BORDER
100
AcDbVertex
100
AcDb2dVertex
 10
67.421726
 20
-2.698589
 30
0.0
  0
SEQEND
  5
3DA
100
AcDbEntity
  8
BORDER
  0
POLYLINE
  5
3DB
100
AcDbEntity
  8
BORDER
100
AcDb2dPolyline
 66
     1
 10
0.0
 20
0.0
 30
0.0
  0
VERTEX
  5
3DC
100
AcDbEntity
  8
BORDER
100
AcDbVertex
100
AcDb2dVertex
 10
61.921726
 20
-1.529211
 30
0.0
  0
VERTEX
  5
3DD
100
AcDbEntity
  8
BORDER
100
AcDbVertex
100
AcDb2dVertex
 10
67.421726
 20
-1.529211
 30
0.0
  0
SEQEND
  5
3DE
100
AcDbEntity
  8
BORDER
  0
POLYLINE
  5
3DF
100
AcDbEntity
  8
BORDER
100
AcDb2dPolyline
 66
     1
 10
0.0
 20
0.0
 30
0.0
  0
VERTEX
  5
3E0
100
AcDbEntity
  8
BORDER
100
AcDbVertex
100
AcDb2dVertex
 10
107.357005
 20
-1.838639
 30
0.0
  0
VERTEX
  5
3E1
100
AcDbEntity
  8
BORDER
100
AcDbVertex
100
AcDb2dVertex
 10
112.857005
 20
-1.838639
 30
0.0
  0
SEQEND
  5
3E2
100
AcDbEntity
  8
BORDER
  0
POLYLINE
  5
3E3
100
AcDbEntity
  8
BORDER
100
AcDb2dPolyline
 66
     1
 10
0.0
 20
0.0
 30
0.0
  0
VERTEX
  5
3E4
100
AcDbEntity
  8
BORDER
100
AcDbVertex
100
AcDb2dVertex
 10
107.357005
 20
-3.008017
 30
0.0
  0
VERTEX
  5
3E5
100
AcDbEntity
  8
BORDER
100
AcDbVertex
100
AcDb2dVertex
 10
112.857005
 20
-3.008017
 30
0.0
  0
SEQEND
  5
3E6
100
AcDbEntity
  8
BORDER
  0
POLYLINE
  5
3E7
100
AcDbEntity
  8
BORDER
100
AcDb2dPolyline
 66
     1
 10
0.0
 20
0.0
 30
0.0
  0
VERTEX
  5
3E8
100
AcDbEntity
  8
BORDER
100
AcDbVertex
100
AcDb2dVertex
 10
107.268266
 20
-4.270998
 30
0.0
  0
VERTEX
  5
3E9
100
AcDbEntity
  8
BORDER
100
AcDbVertex
100
AcDb2dVertex
 10
112.893266
 20
-4.270998
 30
0.0
  0
SEQEND
  5
3EA
100
AcDbEntity
  8
BORDER
  0
POLYLINE
  5
3EB
100
AcDbEntity
  8
BORDER
100
AcDb2dPolyline
 66
     1
 10
0.0
 20
0.0
 30
0.0
  0
VERTEX
  5
3EC
100
AcDbEntity
  8
BORDER
100
AcDbVertex
100
AcDb2dVertex
 10
107.228983
 20
-5.49957
 30
0.0
  0
VERTEX
  5
3ED
100
AcDbEntity
  8
BORDER
100
AcDbVertex
100
AcDb2dVertex
 10
112.853983
 20
-5.49957
 30
0.0
  0
SEQEND
  5
3EE
100
AcDbEntity
  8
BORDER
  0
TEXT
  5
3EF
100
AcDbEntity
  8
BORDER
100
AcDbText
 10
100.494599
 20
-5.524553
 30
0.0
 40
0.75
  1
Opt 2
100
AcDbText
  0
TEXT
  5
3F0
100
AcDbEntity
  8
BORDER
100
AcDbText
 10
100.494599
 20
-4.274553
 30
0.0
 40
0.75
  1
Opt 1
100
AcDbText
  0
TEXT
  5
3F1
100
AcDbEntity
  8
BORDER
100
AcDbText
 10
100.494599
 20
-3.024553
 30
0.0
 40
0.75
  1
Y Scale
100
AcDbText
  0
TEXT
  5
3F2
100
AcDbEntity
  8
BORDER
100
AcDbText
 10
100.494599
 20
-1.774553
 30
0.0
 40
0.75
  1
X Scale
100
AcDbText
  0
TEXT
  5
3F3
100
AcDbEntity
  8
BORDER
100
AcDbText
 10
100.494599
 20
-0.524553
 30
0.0
 40
0.75
  1
Right
100
AcDbText
  0
TEXT
  5
3F4
100
AcDbEntity
  8
BORDER
100
AcDbText
 10
100.494599
 20
0.725447
 30
0.0
 40
0.75
  1
Left
100
AcDbText
  0
TEXT
  5
3F5
100
AcDbEntity
  8
BORDER
100
AcDbText
 10
100.494599
 20
1.975447
 30
0.0
 40
0.75
  1
Bottom
100
AcDbText
  0
TEXT
  5
3F6
100
AcDbEntity
  8
BORDER
100
AcDbText
 10
100.494599
 20
3.225447
 30
0.0
 40
0.75
  1
Top
100
AcDbText
  0
TEXT
  5
3F7
100
AcDbEntity
  8
BORDER
100
AcDbText
 10
100.494599
 20
4.475447
 30
0.0
 40
0.75
  1
Auto Size
100
AcDbText
  0
POLYLINE
  5
3F8
100
AcDbEntity
  8
BORDER
100
AcDb2dPolyline
 66
     1
 10
0.0
 20
0.0
 30
0.0
  0
VERTEX
  5
3F9
100
AcDbEntity
  8
BORDER
100
AcDbVertex
100
AcDb2dVertex
 10
107.228983
 20
-0.585417
 30
0.0
  0
VERTEX
  5
3FA
100
AcDbEntity
  8
BORDER
100
AcDbVertex
100
AcDb2dVertex
 10
112.853983
 20
-0.585417
 30
0.0
  0
SEQEND
  5
3FB
100
AcDbEntity
  8
BORDER
  0
POLYLINE
  5
3FC
100
AcDbEntity
  8
BORDER
100
AcDb2dPolyline
 66
     1
 10
0.0
 20
0.0
 30
0.0
  0
VERTEX
  5
3FD
100
AcDbEntity
  8
BORDER
100
AcDbVertex
100
AcDb2dVertex
 10
107.268266
 20
0.643155
 30
0.0
  0
VERTEX
  5
3FE
100
AcDbEntity
  8
BORDER
100
AcDbVertex
100
AcDb2dVertex
 10
112.893266
 20
0.643155
 30
0.0
  0
SEQEND
  5
3FF
100
AcDbEntity
  8
BORDER
  0
POLYLINE
  5
400
100
AcDbEntity
  8
BORDER
100
AcDb2dPolyline
 66
     1
 10
0.0
 20
0.0
 30
0.0
  0
VERTEX
  5
401
100
AcDbEntity
  8
BORDER
100
AcDbVertex
100
AcDb2dVertex
 10
107.357005
 20
1.906136
 30
0.0
  0
VERTEX
  5
402
100
AcDbEntity
  8
BORDER
100
AcDbVertex
100
AcDb2dVertex
 10
112.857005
 20
1.906136
 30
0.0
  0
SEQEND
  5
403
100
AcDbEntity
  8
BORDER
  0
POLYLINE
  5
404
100
AcDbEntity
  8
BORDER
100
AcDb2dPolyline
 66
     1
 10
0.0
 20
0.0
 30
0.0
  0
VERTEX
  5
405
100
AcDbEntity
  8
BORDER
100
AcDbVertex
100
AcDb2dVertex
 10
107.357005
 20
3.075514
 30
0.0
  0
VERTEX
  5
406
100
AcDbEntity
  8
BORDER
100
AcDbVertex
100
AcDb2dVertex
 10
112.857005
 20
3.075514
 30
0.0
  0
SEQEND
  5
407
100
AcDbEntity
  8
BORDER
  0
POLYLINE
  5
408
100
AcDbEntity
  8
BORDER
100
AcDb2dPolyline
 66
     1
 10
0.0
 20
0.0
 30
0.0
  0
VERTEX
  5
409
100
AcDbEntity
  8
BORDER
100
AcDbVertex
100
AcDb2dVertex
 10
107.370975
 20
4.370039
 30
0.0
  0
VERTEX
  5
40A
100
AcDbEntity
  8
BORDER
100
AcDbVertex
100
AcDb2dVertex
 10
112.870975
 20
4.370039
 30
0.0
  0
SEQEND
  5
40B
100
AcDbEntity
  8
BORDER
  0
POLYLINE
  5
40C
100
AcDbEntity
  8
BORDER
100
AcDb2dPolyline
 66
     1
 10
0.0
 20
0.0
 30
0.0
  0
VERTEX
  5
40D
100
AcDbEntity
  8
BORDER
100
AcDbVertex
100
AcDb2dVertex
 10
93.370975
 20
4.370039
 30
0.0
  0
VERTEX
  5
40E
100
AcDbEntity
  8
BORDER
100
AcDbVertex
100
AcDb2dVertex
 10
98.870975
 20
4.370039
 30
0.0
  0
SEQEND
  5
40F
100
AcDbEntity
  8
BORDER
  0
POLYLINE
  5
410
100
AcDbEntity
  8
BORDER
100
AcDb2dPolyline
 66
     1
 10
0.0
 20
0.0
 30
0.0
  0
VERTEX
  5
411
100
AcDbEntity
  8
BORDER
100
AcDbVertex
100
AcDb2dVertex
 10
93.357005
 20
3.075514
 30
0.0
  0
VERTEX
  5
412
100
AcDbEntity
  8
BORDER
100
AcDbVertex
100
AcDb2dVertex
 10
98.857005
 20
3.075514
 30
0.0
  0
SEQEND
  5
413
100
AcDbEntity
  8
BORDER
  0
POLYLINE
  5
414
100
AcDbEntity
  8
BORDER
100
AcDb2dPolyline
 66
     1
 10
0.0
 20
0.0
 30
0.0
  0
VERTEX
  5
415
100
AcDbEntity
  8
BORDER
100
AcDbVertex
100
AcDb2dVertex
 10
93.357005
 20
1.906136
 30
0.0
  0
VERTEX
  5
416
100
AcDbEntity
  8
BORDER
100
AcDbVertex
100
AcDb2dVertex
 10
98.857005
 20
1.906136
 30
0.0
  0
SEQEND
  5
417
100
AcDbEntity
  8
BORDER
  0
POLYLINE
  5
418
100
AcDbEntity
  8
BORDER
100
AcDb2dPolyline
 66
     1
 10
0.0
 20
0.0
 30
0.0
  0
VERTEX
  5
419
100
AcDbEntity
  8
BORDER
100
AcDbVertex
100
AcDb2dVertex
 10
93.268266
 20
0.643155
 30
0.0
  0
VERTEX
  5
41A
100
AcDbEntity
  8
BORDER
100
AcDbVertex
100
AcDb2dVertex
 10
98.893266
 20
0.643155
 30
0.0
  0
SEQEND
  5
41B
100
AcDbEntity
  8
BORDER
  0
POLYLINE
  5
41C
100
AcDbEntity
  8
BORDER
100
AcDb2dPolyline
 66
     1
 10
0.0
 20
0.0
 30
0.0
  0
VERTEX
  5
41D
100
AcDbEntity
  8
BORDER
100
AcDbVertex
100
AcDb2dVertex
 10
93.228983
 20
-0.585417
 30
0.0
  0
VERTEX
  5
41E
100
AcDbEntity
  8
BORDER
100
AcDbVertex
100
AcDb2dVertex
 10
98.853983
 20
-0.585417
 30
0.0
  0
SEQEND
  5
41F
100
AcDbEntity
  8
BORDER
  0
TEXT
  5
420
100
AcDbEntity
  8
BORDER
100
AcDbText
 10
86.494599
 20
4.475447
 30
0.0
 40
0.75
  1
Auto Size
100
AcDbText
  0
TEXT
  5
421
100
AcDbEntity
  8
BORDER
100
AcDbText
 10
86.494599
 20
3.225447
 30
0.0
 40
0.75
  1
Top
100
AcDbText
  0
TEXT
  5
422
100
AcDbEntity
  8
BORDER
100
AcDbText
 10
86.494599
 20
1.975447
 30
0.0
 40
0.75
  1
Bottom
100
AcDbText
  0
TEXT
  5
423
100
AcDbEntity
  8
BORDER
100
AcDbText
 10
86.494599
 20
0.725447
 30
0.0
 40
0.75
  1
Left
100
AcDbText
  0
TEXT
  5
424
100
AcDbEntity
  8
BORDER
100
AcDbText
 10
86.494599
 20
-0.524553
 30
0.0
 40
0.75
  1
Right
100
AcDbText
  0
TEXT
  5
425
100
AcDbEntity
  8
BORDER
100
AcDbText
 10
86.494599
 20
-1.774553
 30
0.0
 40
0.75
  1
X Scale
100
AcDbText
  0
TEXT
  5
426
100
AcDbEntity
  8
BORDER
100
AcDbText
 10
86.494599
 20
-3.024553
 30
0.0
 40
0.75
  1
Y Scale
100
AcDbText
  0
TEXT
  5
427
100
AcDbEntity
  8
BORDER
100
AcDbText
 10
86.494599
 20
-4.274553
 30
0.0
 40
0.75
  1
Opt 1
100
AcDbText
  0
TEXT
  5
428
100
AcDbEntity
  8
BORDER
100
AcDbText
 10
86.494599
 20
-5.524553
 30
0.0
 40
0.75
  1
Opt 2
100
AcDbText
  0
POLYLINE
  5
429
100
AcDbEntity
  8
BORDER
100
AcDb2dPolyline
 66
     1
 10
0.0
 20
0.0
 30
0.0
  0
VERTEX
  5
42A
100
AcDbEntity
  8
BORDER
100
AcDbVertex
100
AcDb2dVertex
 10
93.228983
 20
-5.49957
 30
0.0
  0
VERTEX
  5
42B
100
AcDbEntity
  8
BORDER
100
AcDbVertex
100
AcDb2dVertex
 10
98.853983
 20
-5.49957
 30
0.0
  0
SEQEND
  5
42C
100
AcDbEntity
  8
BORDER
  0
POLYLINE
  5
42D
100
AcDbEntity
  8
BORDER
100
AcDb2dPolyline
 66
     1
 10
0.0
 20
0.0
 30
0.0
  0
VERTEX
  5
42E
100
AcDbEntity
  8
BORDER
100
AcDbVertex
100
AcDb2dVertex
 10
93.268266
 20
-4.270998
 30
0.0
  0
VERTEX
  5
42F
100
AcDbEntity
  8
BORDER
100
AcDbVertex
100
AcDb2dVertex
 10
98.893266
 20
-4.270998
 30
0.0
  0
SEQEND
  5
430
100
AcDbEntity
  8
BORDER
  0
POLYLINE
  5
431
100
AcDbEntity
  8
BORDER
100
AcDb2dPolyline
 66
     1
 10
0.0
 20
0.0
 30
0.0
  0
VERTEX
  5
432
100
AcDbEntity
  8
BORDER
100
AcDbVertex
100
AcDb2dVertex
 10
93.357005
 20
-3.008017
 30
0.0
  0
VERTEX
  5
433
100
AcDbEntity
  8
BORDER
100
AcDbVertex
100
AcDb2dVertex
 10
98.857005
 20
-3.008017
 30
0.0
  0
SEQEND
  5
434
100
AcDbEntity
  8
BORDER
  0
POLYLINE
  5
435
100
AcDbEntity
  8
BORDER
100
AcDb2dPolyline
 66
     1
 10
0.0
 20
0.0
 30
0.0
  0
VERTEX
  5
436
100
AcDbEntity
  8
BORDER
100
AcDbVertex
100
AcDb2dVertex
 10
93.357005
 20
-1.838639
 30
0.0
  0
VERTEX
  5
437
100
AcDbEntity
  8
BORDER
100
AcDbVertex
100
AcDb2dVertex
 10
98.857005
 20
-1.838639
 30
0.0
  0
SEQEND
  5
438
100
AcDbEntity
  8
BORDER
  0
POLYLINE
  5
439
100
AcDbEntity
  8
BORDER
100
AcDb2dPolyline
 66
     1
 10
0.0
 20
0.0
 30
0.0
 70
     1
 40
0.409783
 41
0.409783
  0
VERTEX
  5
43A
100
AcDbEntity
  8
BORDER
100
AcDbVertex
100
AcDb2dVertex
 10
114.822925
 20
-35.418912
 30
0.0
  0
VERTEX
  5
43B
100
AcDbEntity
  8
BORDER
100
AcDbVertex
100
AcDb2dVertex
 10
37.83126
 20
-35.418912
 30
0.0
  0
VERTEX
  5
43C
100
AcDbEntity
  8
BORDER
100
AcDbVertex
100
AcDb2dVertex
 10
37.83126
 20
18.070251
 30
0.0
  0
VERTEX
  5
43D
100
AcDbEntity
  8
BORDER
100
AcDbVertex
100
AcDb2dVertex
 10
114.822925
 20
18.070251
 30
0.0
  0
SEQEND
  5
43E
100
AcDbEntity
  8
BORDER
  0
ENDBLK
  5
43F
100
AcDbEntity
  8
CT1
100
AcDbBlockEnd
  0
BLOCK
  5
440
100
AcDbEntity
  8
C1
100
AcDbBlockBegin
  2
FLOWER
 70
    64
 10
0.0
 20
0.0
 30
0.0
  3
FLOWER
  1

  0
INSERT
  5
441
100
AcDbEntity
  8
CT1
100
AcDbBlockReference
  2
P_ON
 10
9.153898
 20
5.002176
 30
0.0
 41
0.915702
 42
0.915702
 43
0.915702
 50
90.0
  0
POLYLINE
  5
442
100
AcDbEntity
  8
C1
100
AcDb2dPolyline
 66
     1
 10
0.0
 20
0.0
 30
0.0
  0
VERTEX
  5
443
100
AcDbEntity
  8
C1
100
AcDbVertex
100
AcDb2dVertex
 10
9.090188
 20
4.994981
 30
0.0
 42
-0.119486
  0
VERTEX
  5
444
100
AcDbEntity
  8
C1
100
AcDbVertex
100
AcDb2dVertex
 10
8.604813
 20
5.176676
 30
0.0
 42
-0.06248
  0
VERTEX
  5
445
100
AcDbEntity
  8
C1
100
AcDbVertex
100
AcDb2dVertex
 10
8.339239
 20
5.462244
 30
0.0
 42
-0.135798
  0
VERTEX
  5
446
100
AcDbEntity
  8
C1
100
AcDbVertex
100
AcDb2dVertex
 10
8.276073
 20
5.632955
 30
0.0
 42
-0.065412
  0
VERTEX
  5
447
100
AcDbEntity
  8
C1
100
AcDbVertex
100
AcDb2dVertex
 10
8.284458
 20
5.814369
 30
0.0
 42
-0.034844
  0
VERTEX
  5
448
100
AcDbEntity
  8
C1
100
AcDbVertex
100
AcDb2dVertex
 10
8.36739
 20
6.143987
 30
0.0
 42
-0.057598
  0
VERTEX
  5
449
100
AcDbEntity
  8
C1
100
AcDbVertex
100
AcDb2dVertex
 10
8.712021
 20
6.89304
 30
0.0
 42
-0.05435
  0
VERTEX
  5
44A
100
AcDbEntity
  8
C1
100
AcDbVertex
100
AcDb2dVertex
 10
9.24403
 20
7.585829
 30
0.0
 42
-0.038575
  0
VERTEX
  5
44B
100
AcDbEntity
  8
C1
100
AcDbVertex
100
AcDb2dVertex
 10
9.644823
 20
7.944662
 30
0.0
 42
-0.022142
  0
VERTEX
  5
44C
100
AcDbEntity
  8
C1
100
AcDbVertex
100
AcDb2dVertex
 10
10.412884
 20
8.480135
 30
0.0
 42
-0.027005
  0
VERTEX
  5
44D
100
AcDbEntity
  8
C1
100
AcDbVertex
100
AcDb2dVertex
 10
10.637885
 20
8.606156
 30
0.0
 42
0.008304
  0
VERTEX
  5
44E
100
AcDbEntity
  8
C1
100
AcDbVertex
100
AcDb2dVertex
 10
10.801646
 20
8.572028
 30
0.0
 42
0.013922
  0
VERTEX
  5
44F
100
AcDbEntity
  8
C1
100
AcDbVertex
100
AcDb2dVertex
 10
10.659548
 20
8.400608
 30
0.0
 42
0.00536
  0
VERTEX
  5
450
100
AcDbEntity
  8
C1
100
AcDbVertex
100
AcDb2dVertex
 10
10.639581
 20
8.372898
 30
0.0
 42
0.012226
  0
VERTEX
  5
451
100
AcDbEntity
  8
C1
100
AcDbVertex
100
AcDb2dVertex
 10
10.611731
 20
8.359903
 30
0.0
 42
0.086179
  0
VERTEX
  5
452
100
AcDbEntity
  8
C1
100
AcDbVertex
100
AcDb2dVertex
 10
10.438324
 20
8.232681
 30
0.0
 42
0.091655
  0
VERTEX
  5
453
100
AcDbEntity
  8
C1
100
AcDbVertex
100
AcDb2dVertex
 10
10.3125
 20
8.041925
 30
0.0
 42
0.066107
  0
VERTEX
  5
454
100
AcDbEntity
  8
C1
100
AcDbVertex
100
AcDb2dVertex
 10
10.268636
 20
7.882364
 30
0.0
 42
0.054196
  0
VERTEX
  5
455
100
AcDbEntity
  8
C1
100
AcDbVertex
100
AcDb2dVertex
 10
10.383633
 20
7.899823
 30
0.0
 42
0.088838
  0
VERTEX
  5
456
100
AcDbEntity
  8
C1
100
AcDbVertex
100
AcDb2dVertex
 10
10.555597
 20
7.979975
 30
0.0
 42
0.126302
  0
VERTEX
  5
457
100
AcDbEntity
  8
C1
100
AcDbVertex
100
AcDb2dVertex
 10
10.729241
 20
8.18358
 30
0.0
 42
0.085344
  0
VERTEX
  5
458
100
AcDbEntity
  8
C1
100
AcDbVertex
100
AcDb2dVertex
 10
10.780447
 20
8.358617
 30
0.0
 42
-0.01801
  0
VERTEX
  5
459
100
AcDbEntity
  8
C1
100
AcDbVertex
100
AcDb2dVertex
 10
10.949859
 20
8.545729
 30
0.0
 42
0.026836
  0
VERTEX
  5
45A
100
AcDbEntity
  8
C1
100
AcDbVertex
100
AcDb2dVertex
 10
11.264164
 20
8.51939
 30
0.0
 42
0.039674
  0
VERTEX
  5
45B
100
AcDbEntity
  8
C1
100
AcDbVertex
100
AcDb2dVertex
 10
11.482469
 20
8.530175
 30
0.0
  0
VERTEX
  5
45C
100
AcDbEntity
  8
C1
100
AcDbVertex
100
AcDb2dVertex
 10
11.348679
 20
8.468188
 30
0.0
 42
0.058095
  0
VERTEX
  5
45D
100
AcDbEntity
  8
C1
100
AcDbVertex
100
AcDb2dVertex
 10
11.224664
 20
8.473061
 30
0.0
 42
0.10996
  0
VERTEX
  5
45E
100
AcDbEntity
  8
C1
100
AcDbVertex
100
AcDb2dVertex
 10
11.001891
 20
8.405167
 30
0.0
 42
0.133336
  0
VERTEX
  5
45F
100
AcDbEntity
  8
C1
100
AcDbVertex
100
AcDb2dVertex
 10
10.802248
 20
8.207677
 30
0.0
 42
0.113595
  0
VERTEX
  5
460
100
AcDbEntity
  8
C1
100
AcDbVertex
100
AcDb2dVertex
 10
10.731324
 20
7.977983
 30
0.0
 42
0.090702
  0
VERTEX
  5
461
100
AcDbEntity
  8
C1
100
AcDbVertex
100
AcDb2dVertex
 10
10.949569
 20
7.980342
 30
0.0
 42
0.047738
  0
VERTEX
  5
462
100
AcDbEntity
  8
C1
100
AcDbVertex
100
AcDb2dVertex
 10
11.060393
 20
8.013066
 30
0.0
 42
0.001369
  0
VERTEX
  5
463
100
AcDbEntity
  8
C1
100
AcDbVertex
100
AcDb2dVertex
 10
11.04364
 20
7.998412
 30
0.0
 42
0.043721
  0
VERTEX
  5
464
100
AcDbEntity
  8
C1
100
AcDbVertex
100
AcDb2dVertex
 10
10.553983
 20
7.485318
 30
0.0
 42
0.063043
  0
VERTEX
  5
465
100
AcDbEntity
  8
C1
100
AcDbVertex
100
AcDb2dVertex
 10
10.362685
 20
7.449797
 30
0.0
 42
0.081627
  0
VERTEX
  5
466
100
AcDbEntity
  8
C1
100
AcDbVertex
100
AcDb2dVertex
 10
10.138954
 20
7.335472
 30
0.0
 42
0.049946
  0
VERTEX
  5
467
100
AcDbEntity
  8
C1
100
AcDbVertex
100
AcDb2dVertex
 10
10.024446
 20
7.231939
 30
0.0
 42
0.079165
  0
VERTEX
  5
468
100
AcDbEntity
  8
C1
100
AcDbVertex
100
AcDb2dVertex
 10
10.191654
 20
7.171625
 30
0.0
 42
0.057382
  0
VERTEX
  5
469
100
AcDbEntity
  8
C1
100
AcDbVertex
100
AcDb2dVertex
 10
10.32053
 20
7.162129
 30
0.0
 42
0.0074
  0
VERTEX
  5
46A
100
AcDbEntity
  8
C1
100
AcDbVertex
100
AcDb2dVertex
 10
10.256472
 20
7.060336
 30
0.0
 42
0.009139
  0
VERTEX
  5
46B
100
AcDbEntity
  8
C1
100
AcDbVertex
100
AcDb2dVertex
 10
10.181568
 20
6.932086
 30
0.0
 42
0.018198
  0
VERTEX
  5
46C
100
AcDbEntity
  8
C1
100
AcDbVertex
100
AcDb2dVertex
 10
10.139893
 20
6.913243
 30
0.0
 42
0.086179
  0
VERTEX
  5
46D
100
AcDbEntity
  8
C1
100
AcDbVertex
100
AcDb2dVertex
 10
9.966487
 20
6.786021
 30
0.0
 42
0.091655
  0
VERTEX
  5
46E
100
AcDbEntity
  8
C1
100
AcDbVertex
100
AcDb2dVertex
 10
9.840662
 20
6.595265
 30
0.0
 42
0.066107
  0
VERTEX
  5
46F
100
AcDbEntity
  8
C1
100
AcDbVertex
100
AcDb2dVertex
 10
9.796798
 20
6.435704
 30
0.0
 42
0.054196
  0
VERTEX
  5
470
100
AcDbEntity
  8
C1
100
AcDbVertex
100
AcDb2dVertex
 10
9.911796
 20
6.453162
 30
0.0
 42
0.088838
  0
VERTEX
  5
471
100
AcDbEntity
  8
C1
100
AcDbVertex
100
AcDb2dVertex
 10
10.083759
 20
6.533315
 30
0.0
 42
0.126302
  0
VERTEX
  5
472
100
AcDbEntity
  8
C1
100
AcDbVertex
100
AcDb2dVertex
 10
10.257404
 20
6.73692
 30
0.0
 42
0.083783
  0
VERTEX
  5
473
100
AcDbEntity
  8
C1
100
AcDbVertex
100
AcDb2dVertex
 10
10.308219
 20
6.908644
 30
0.0
 42
-0.006512
  0
VERTEX
  5
474
100
AcDbEntity
  8
C1
100
AcDbVertex
100
AcDb2dVertex
 10
10.360461
 20
6.997024
 30
0.0
 42
-0.015012
  0
VERTEX
  5
475
100
AcDbEntity
  8
C1
100
AcDbVertex
100
AcDb2dVertex
 10
10.489528
 20
7.195358
 30
0.0
 42
0.081782
  0
VERTEX
  5
476
100
AcDbEntity
  8
C1
100
AcDbVertex
100
AcDb2dVertex
 10
10.649689
 20
7.285029
 30
0.0
 42
0.062527
  0
VERTEX
  5
477
100
AcDbEntity
  8
C1
100
AcDbVertex
100
AcDb2dVertex
 10
10.747886
 20
7.385831
 30
0.0
 42
0.009057
  0
VERTEX
  5
478
100
AcDbEntity
  8
C1
100
AcDbVertex
100
AcDb2dVertex
 10
10.942196
 20
7.483321
 30
0.0
 42
0.003706
  0
VERTEX
  5
479
100
AcDbEntity
  8
C1
100
AcDbVertex
100
AcDb2dVertex
 10
11.020659
 20
7.525227
 30
0.0
 42
0.088839
  0
VERTEX
  5
47A
100
AcDbEntity
  8
C1
100
AcDbVertex
100
AcDb2dVertex
 10
10.899675
 20
7.339561
 30
0.0
 42
0.066107
  0
VERTEX
  5
47B
100
AcDbEntity
  8
C1
100
AcDbVertex
100
AcDb2dVertex
 10
10.855811
 20
7.18
 30
0.0
 42
0.054196
  0
VERTEX
  5
47C
100
AcDbEntity
  8
C1
100
AcDbVertex
100
AcDb2dVertex
 10
10.970808
 20
7.197459
 30
0.0
 42
0.088838
  0
VERTEX
  5
47D
100
AcDbEntity
  8
C1
100
AcDbVertex
100
AcDb2dVertex
 10
11.142772
 20
7.277611
 30
0.0
 42
0.026617
  0
VERTEX
  5
47E
100
AcDbEntity
  8
C1
100
AcDbVertex
100
AcDb2dVertex
 10
11.187769
 20
7.313012
 30
0.0
 42
0.024868
  0
VERTEX
  5
47F
100
AcDbEntity
  8
C1
100
AcDbVertex
100
AcDb2dVertex
 10
11.2043
 20
7.186691
 30
0.0
 42
0.003284
  0
VERTEX
  5
480
100
AcDbEntity
  8
C1
100
AcDbVertex
100
AcDb2dVertex
 10
11.209246
 20
7.160465
 30
0.0
 42
0.033978
  0
VERTEX
  5
481
100
AcDbEntity
  8
C1
100
AcDbVertex
100
AcDb2dVertex
 10
11.10714
 20
7.135306
 30
0.0
 42
0.081627
  0
VERTEX
  5
482
100
AcDbEntity
  8
C1
100
AcDbVertex
100
AcDb2dVertex
 10
10.883408
 20
7.020981
 30
0.0
 42
0.049946
  0
VERTEX
  5
483
100
AcDbEntity
  8
C1
100
AcDbVertex
100
AcDb2dVertex
 10
10.7689
 20
6.917448
 30
0.0
 42
0.079165
  0
VERTEX
  5
484
100
AcDbEntity
  8
C1
100
AcDbVertex
100
AcDb2dVertex
 10
10.936109
 20
6.857134
 30
0.0
 42
0.099898
  0
VERTEX
  5
485
100
AcDbEntity
  8
C1
100
AcDbVertex
100
AcDb2dVertex
 10
11.159579
 20
6.859581
 30
0.0
 42
0.055703
  0
VERTEX
  5
486
100
AcDbEntity
  8
C1
100
AcDbVertex
100
AcDb2dVertex
 10
11.278623
 20
6.899213
 30
0.0
 42
0.012959
  0
VERTEX
  5
487
100
AcDbEntity
  8
C1
100
AcDbVertex
100
AcDb2dVertex
 10
11.314932
 20
6.800377
 30
0.0
 42
0.031847
  0
VERTEX
  5
488
100
AcDbEntity
  8
C1
100
AcDbVertex
100
AcDb2dVertex
 10
11.363373
 20
6.616864
 30
0.0
 42
0.079113
  0
VERTEX
  5
489
100
AcDbEntity
  8
C1
100
AcDbVertex
100
AcDb2dVertex
 10
11.534665
 20
6.287559
 30
0.0
 42
0.010698
  0
VERTEX
  5
48A
100
AcDbEntity
  8
C1
100
AcDbVertex
100
AcDb2dVertex
 10
11.684245
 20
6.095957
 30
0.0
 42
-0.050471
  0
VERTEX
  5
48B
100
AcDbEntity
  8
C1
100
AcDbVertex
100
AcDb2dVertex
 10
11.429026
 20
5.661279
 30
0.0
 42
-0.077867
  0
VERTEX
  5
48C
100
AcDbEntity
  8
C1
100
AcDbVertex
100
AcDb2dVertex
 10
10.88773
 20
5.121923
 30
0.0
 42
-0.086247
  0
VERTEX
  5
48D
100
AcDbEntity
  8
C1
100
AcDbVertex
100
AcDb2dVertex
 10
9.66295
 20
4.521022
 30
0.0
 42
-0.303636
  0
VERTEX
  5
48E
100
AcDbEntity
  8
C1
100
AcDbVertex
100
AcDb2dVertex
 10
9.262294
 20
4.647393
 30
0.0
 42
-0.057816
  0
VERTEX
  5
48F
100
AcDbEntity
  8
C1
100
AcDbVertex
100
AcDb2dVertex
 10
9.161095
 20
4.808741
 30
0.0
  0
VERTEX
  5
490
100
AcDbEntity
  8
C1
100
AcDbVertex
100
AcDb2dVertex
 10
9.089636
 20
4.99507
 30
0.0
  0
SEQEND
  5
491
100
AcDbEntity
  8
C1
  0
INSERT
  5
492
100
AcDbEntity
  8
CT1
100
AcDbBlockReference
  2
S_OFF
 10
9.661467
 20
5.058179
 30
0.0
 41
0.915702
 42
0.915702
 43
0.915702
 50
90.0
  0
INSERT
  5
493
100
AcDbEntity
  8
CT1
100
AcDbBlockReference
  2
P_ON
 10
8.246181
 20
6.240545
 30
0.0
 41
0.915702
 42
0.915702
 43
0.915702
 50
90.0
  0
POLYLINE
  5
494
100
AcDbEntity
  8
C1
100
AcDb2dPolyline
 66
     1
 10
0.0
 20
0.0
 30
0.0
  0
VERTEX
  5
495
100
AcDbEntity
  8
C1
100
AcDbVertex
100
AcDb2dVertex
 10
8.243952
 20
6.181647
 30
0.0
 42
-0.014131
  0
VERTEX
  5
496
100
AcDbEntity
  8
C1
100
AcDbVertex
100
AcDb2dVertex
 10
8.157662
 20
6.233157
 30
0.0
 42
-0.079856
  0
VERTEX
  5
497
100
AcDbEntity
  8
C1
100
AcDbVertex
100
AcDb2dVertex
 10
7.92907
 20
6.436006
 30
0.0
 42
-0.028503
  0
VERTEX
  5
498
100
AcDbEntity
  8
C1
100
AcDbVertex
100
AcDb2dVertex
 10
7.748272
 20
6.68469
 30
0.0
 42
-0.029097
  0
VERTEX
  5
499
100
AcDbEntity
  8
C1
100
AcDbVertex
100
AcDb2dVertex
 10
7.60033
 20
6.947038
 30
0.0
 42
-0.081271
  0
VERTEX
  5
49A
100
AcDbEntity
  8
C1
100
AcDbVertex
100
AcDb2dVertex
 10
7.514265
 20
7.23222
 30
0.0
 42
-0.00846
  0
VERTEX
  5
49B
100
AcDbEntity
  8
C1
100
AcDbVertex
100
AcDb2dVertex
 10
7.507592
 20
7.290503
 30
0.0
 42
-0.089146
  0
VERTEX
  5
49C
100
AcDbEntity
  8
C1
100
AcDbVertex
100
AcDb2dVertex
 10
7.369799
 20
7.324713
 30
0.0
 42
-0.248411
  0
VERTEX
  5
49D
100
AcDbEntity
  8
C1
100
AcDbVertex
100
AcDb2dVertex
 10
7.180273
 20
7.567577
 30
0.0
 42
-0.061841
  0
VERTEX
  5
49E
100
AcDbEntity
  8
C1
100
AcDbVertex
100
AcDb2dVertex
 10
7.17253
 20
7.715863
 30
0.0
 42
-0.083483
  0
VERTEX
  5
49F
100
AcDbEntity
  8
C1
100
AcDbVertex
100
AcDb2dVertex
 10
7.198537
 20
7.823094
 30
0.0
 42
-0.100543
  0
VERTEX
  5
4A0
100
AcDbEntity
  8
C1
100
AcDbVertex
100
AcDb2dVertex
 10
7.342819
 20
8.031778
 30
0.0
 42
-0.061375
  0
VERTEX
  5
4A1
100
AcDbEntity
  8
C1
100
AcDbVertex
100
AcDb2dVertex
 10
7.673383
 20
8.279372
 30
0.0
 42
-0.051536
  0
VERTEX
  5
4A2
100
AcDbEntity
  8
C1
100
AcDbVertex
100
AcDb2dVertex
 10
8.020049
 20
8.433058
 30
0.0
 42
-0.016015
  0
VERTEX
  5
4A3
100
AcDbEntity
  8
C1
100
AcDbVertex
100
AcDb2dVertex
 10
9.18924
 20
8.772154
 30
0.0
 42
-0.042842
  0
VERTEX
  5
4A4
100
AcDbEntity
  8
C1
100
AcDbVertex
100
AcDb2dVertex
 10
9.966916
 20
8.901346
 30
0.0
 42
-0.000769
  0
VERTEX
  5
4A5
100
AcDbEntity
  8
C1
100
AcDbVertex
100
AcDb2dVertex
 10
9.992795
 20
8.903354
 30
0.0
 42
0.084871
  0
VERTEX
  5
4A6
100
AcDbEntity
  8
C1
100
AcDbVertex
100
AcDb2dVertex
 10
10.458184
 20
8.657387
 30
0.0
 42
0.013221
  0
VERTEX
  5
4A7
100
AcDbEntity
  8
C1
100
AcDbVertex
100
AcDb2dVertex
 10
10.343847
 20
8.589144
 30
0.0
 42
0.022142
  0
VERTEX
  5
4A8
100
AcDbEntity
  8
C1
100
AcDbVertex
100
AcDb2dVertex
 10
9.566417
 20
8.047138
 30
0.0
 42
0.038575
  0
VERTEX
  5
4A9
100
AcDbEntity
  8
C1
100
AcDbVertex
100
AcDb2dVertex
 10
9.150813
 20
7.675044
 30
0.0
 42
0.05435
  0
VERTEX
  5
4AA
100
AcDbEntity
  8
C1
100
AcDbVertex
100
AcDb2dVertex
 10
8.601769
 20
6.960073
 30
0.0
 42
0.057598
  0
VERTEX
  5
4AB
100
AcDbEntity
  8
C1
100
AcDbVertex
100
AcDb2dVertex
 10
8.244754
 20
6.184103
 30
0.0
  0
SEQEND
  5
4AC
100
AcDbEntity
  8
C1
  0
INSERT
  5
4AD
100
AcDbEntity
  8
CT1
100
AcDbBlockReference
  2
S_OFF
 10
8.153341
 20
6.844318
 30
0.0
 41
0.915702
 42
0.915702
 43
0.915702
 50
90.0
  0
INSERT
  5
4AE
100
AcDbEntity
  8
CT1
100
AcDbBlockReference
  2
P_ON
 10
10.70135
 20
7.494455
 30
0.0
 41
0.915702
 42
0.915702
 43
0.915702
 50
90.0
  0
POLYLINE
  5
4AF
100
AcDbEntity
  8
C1
100
AcDb2dPolyline
 66
     1
 10
0.0
 20
0.0
 30
0.0
  0
VERTEX
  5
4B0
100
AcDbEntity
  8
C1
100
AcDbVertex
100
AcDb2dVertex
 10
10.64597
 20
7.459529
 30
0.0
  0
VERTEX
  5
4B1
100
AcDbEntity
  8
C1
100
AcDbVertex
100
AcDb2dVertex
 10
10.974912
 20
7.803398
 30
0.0
  0
VERTEX
  5
4B2
100
AcDbEntity
  8
C1
100
AcDbVertex
100
AcDb2dVertex
 10
11.10274
 20
7.931215
 30
0.0
 42
-0.019998
  0
VERTEX
  5
4B3
100
AcDbEntity
  8
C1
100
AcDbVertex
100
AcDb2dVertex
 10
11.349536
 20
8.131356
 30
0.0
 42
0.005586
  0
VERTEX
  5
4B4
100
AcDbEntity
  8
C1
100
AcDbVertex
100
AcDb2dVertex
 10
11.337866
 20
8.099789
 30
0.0
 42
0.003793
  0
VERTEX
  5
4B5
100
AcDbEntity
  8
C1
100
AcDbVertex
100
AcDb2dVertex
 10
11.229586
 20
7.789077
 30
0.0
 42
0.020286
  0
VERTEX
  5
4B6
100
AcDbEntity
  8
C1
100
AcDbVertex
100
AcDb2dVertex
 10
11.215089
 20
7.73999
 30
0.0
 42
-0.015273
  0
VERTEX
  5
4B7
100
AcDbEntity
  8
C1
100
AcDbVertex
100
AcDb2dVertex
 10
10.900623
 20
7.562567
 30
0.0
 42
-0.010648
  0
VERTEX
  5
4B8
100
AcDbEntity
  8
C1
100
AcDbVertex
100
AcDb2dVertex
 10
10.675243
 20
7.450385
 30
0.0
  0
VERTEX
  5
4B9
100
AcDbEntity
  8
C1
100
AcDbVertex
100
AcDb2dVertex
 10
10.642897
 20
7.453028
 30
0.0
  0
SEQEND
  5
4BA
100
AcDbEntity
  8
C1
  0
INSERT
  5
4BB
100
AcDbEntity
  8
CT1
100
AcDbBlockReference
  2
S_OFF
 10
10.083122
 20
7.51898
 30
0.0
 41
0.915702
 42
0.915702
 43
0.915702
 50
90.0
  0
INSERT
  5
4BC
100
AcDbEntity
  8
CT1
100
AcDbBlockReference
  2
P_ON
 10
7.459817
 20
8.324583
 30
0.0
 41
0.915702
 42
0.915702
 43
0.915702
 50
90.0
  0
POLYLINE
  5
4BD
100
AcDbEntity
  8
C1
100
AcDb2dPolyline
 66
     1
 10
0.0
 20
0.0
 30
0.0
  0
VERTEX
  5
4BE
100
AcDbEntity
  8
C1
100
AcDbVertex
100
AcDb2dVertex
 10
7.42815
 20
8.272964
 30
0.0
 42
-0.098262
  0
VERTEX
  5
4BF
100
AcDbEntity
  8
C1
100
AcDbVertex
100
AcDb2dVertex
 10
7.354265
 20
8.679614
 30
0.0
 42
-0.015352
  0
VERTEX
  5
4C0
100
AcDbEntity
  8
C1
100
AcDbVertex
100
AcDb2dVertex
 10
7.360843
 20
8.719523
 30
0.0
 42
-0.064901
  0
VERTEX
  5
4C1
100
AcDbEntity
  8
C1
100
AcDbVertex
100
AcDb2dVertex
 10
7.225668
 20
8.842948
 30
0.0
 42
-0.138725
  0
VERTEX
  5
4C2
100
AcDbEntity
  8
C1
100
AcDbVertex
100
AcDb2dVertex
 10
7.079696
 20
9.165056
 30
0.0
 42
-0.068667
  0
VERTEX
  5
4C3
100
AcDbEntity
  8
C1
100
AcDbVertex
100
AcDb2dVertex
 10
7.07685
 20
9.389501
 30
0.0
 42
-0.081524
  0
VERTEX
  5
4C4
100
AcDbEntity
  8
C1
100
AcDbVertex
100
AcDb2dVertex
 10
7.128791
 20
9.565405
 30
0.0
 42
-0.198371
  0
VERTEX
  5
4C5
100
AcDbEntity
  8
C1
100
AcDbVertex
100
AcDb2dVertex
 10
7.363187
 20
9.774885
 30
0.0
 42
-0.111627
  0
VERTEX
  5
4C6
100
AcDbEntity
  8
C1
100
AcDbVertex
100
AcDb2dVertex
 10
7.593333
 20
9.801548
 30
0.0
 42
-0.02221
  0
VERTEX
  5
4C7
100
AcDbEntity
  8
C1
100
AcDbVertex
100
AcDb2dVertex
 10
7.639238
 20
9.924974
 30
0.0
 42
-0.064829
  0
VERTEX
  5
4C8
100
AcDbEntity
  8
C1
100
AcDbVertex
100
AcDb2dVertex
 10
7.742636
 20
10.101464
 30
0.0
 42
-0.031585
  0
VERTEX
  5
4C9
100
AcDbEntity
  8
C1
100
AcDbVertex
100
AcDb2dVertex
 10
7.947062
 20
10.333332
 30
0.0
 42
-0.049987
  0
VERTEX
  5
4CA
100
AcDbEntity
  8
C1
100
AcDbVertex
100
AcDb2dVertex
 10
8.092554
 20
10.452236
 30
0.0
 42
-0.078488
  0
VERTEX
  5
4CB
100
AcDbEntity
  8
C1
100
AcDbVertex
100
AcDb2dVertex
 10
8.261985
 20
10.52966
 30
0.0
 42
-0.026317
  0
VERTEX
  5
4CC
100
AcDbEntity
  8
C1
100
AcDbVertex
100
AcDb2dVertex
 10
8.852944
 20
10.661406
 30
0.0
 42
-0.025034
  0
VERTEX
  5
4CD
100
AcDbEntity
  8
C1
100
AcDbVertex
100
AcDb2dVertex
 10
9.011449
 20
10.679984
 30
0.0
 42
0.017924
  0
VERTEX
  5
4CE
100
AcDbEntity
  8
C1
100
AcDbVertex
100
AcDb2dVertex
 10
9.043213
 20
10.496913
 30
0.0
 42
0.032395
  0
VERTEX
  5
4CF
100
AcDbEntity
  8
C1
100
AcDbVertex
100
AcDb2dVertex
 10
9.172426
 20
10.03436
 30
0.0
 42
0.072287
  0
VERTEX
  5
4D0
100
AcDbEntity
  8
C1
100
AcDbVertex
100
AcDb2dVertex
 10
9.478434
 20
9.448714
 30
0.0
 42
0.054525
  0
VERTEX
  5
4D1
100
AcDbEntity
  8
C1
100
AcDbVertex
100
AcDb2dVertex
 10
9.870292
 20
9.015016
 30
0.0
 42
0.038218
  0
VERTEX
  5
4D2
100
AcDbEntity
  8
C1
100
AcDbVertex
100
AcDb2dVertex
 10
9.15909
 20
8.890108
 30
0.0
 42
0.016015
  0
VERTEX
  5
4D3
100
AcDbEntity
  8
C1
100
AcDbVertex
100
AcDb2dVertex
 10
7.98241
 20
8.54884
 30
0.0
 42
0.051536
  0
VERTEX
  5
4D4
100
AcDbEntity
  8
C1
100
AcDbVertex
100
AcDb2dVertex
 10
7.612862
 20
8.38501
 30
0.0
  0
VERTEX
  5
4D5
100
AcDbEntity
  8
C1
100
AcDbVertex
100
AcDb2dVertex
 10
7.433955
 20
8.267963
 30
0.0
  0
SEQEND
  5
4D6
100
AcDbEntity
  8
C1
  0
INSERT
  5
4D7
100
AcDbEntity
  8
CT1
100
AcDbBlockReference
  2
S_OFF
 10
7.711567
 20
8.759942
 30
0.0
 41
0.915702
 42
0.915702
 43
0.915702
 50
90.0
  0
INSERT
  5
4D8
100
AcDbEntity
  8
CT1
100
AcDbBlockReference
  2
P_ON
 10
9.672859
 20
11.1857
 30
0.0
 41
0.915702
 42
0.915702
 43
0.915702
 50
90.0
  0
POLYLINE
  5
4D9
100
AcDbEntity
  8
C1
100
AcDb2dPolyline
 66
     1
 10
0.0
 20
0.0
 30
0.0
  0
VERTEX
  5
4DA
100
AcDbEntity
  8
C1
100
AcDbVertex
100
AcDb2dVertex
 10
9.712727
 20
11.255967
 30
0.0
 42
0.054149
  0
VERTEX
  5
4DB
100
AcDbEntity
  8
C1
100
AcDbVertex
100
AcDb2dVertex
 10
9.928136
 20
11.12251
 30
0.0
 42
0.030192
  0
VERTEX
  5
4DC
100
AcDbEntity
  8
C1
100
AcDbVertex
100
AcDb2dVertex
 10
10.126474
 20
11.041882
 30
0.0
 42
-0.030714
  0
VERTEX
  5
4DD
100
AcDbEntity
  8
C1
100
AcDbVertex
100
AcDb2dVertex
 10
10.321365
 20
10.962419
 30
0.0
 42
-0.08432
  0
VERTEX
  5
4DE
100
AcDbEntity
  8
C1
100
AcDbVertex
100
AcDb2dVertex
 10
10.531768
 20
10.813222
 30
0.0
 42
-0.001336
  0
VERTEX
  5
4DF
100
AcDbEntity
  8
C1
100
AcDbVertex
100
AcDb2dVertex
 10
10.537615
 20
10.807348
 30
0.0
 42
-0.081807
  0
VERTEX
  5
4E0
100
AcDbEntity
  8
C1
100
AcDbVertex
100
AcDb2dVertex
 10
11.051855
 20
10.722835
 30
0.0
 42
-0.119685
  0
VERTEX
  5
4E1
100
AcDbEntity
  8
C1
100
AcDbVertex
100
AcDb2dVertex
 10
11.691203
 20
10.318088
 30
0.0
 42
-0.094612
  0
VERTEX
  5
4E2
100
AcDbEntity
  8
C1
100
AcDbVertex
100
AcDb2dVertex
 10
12.020521
 20
9.814917
 30
0.0
 42
-0.039488
  0
VERTEX
  5
4E3
100
AcDbEntity
  8
C1
100
AcDbVertex
100
AcDb2dVertex
 10
12.098115
 20
9.574278
 30
0.0
 42
0.002684
  0
VERTEX
  5
4E4
100
AcDbEntity
  8
C1
100
AcDbVertex
100
AcDb2dVertex
 10
12.07699
 20
9.504234
 30
0.0
 42
0.067444
  0
VERTEX
  5
4E5
100
AcDbEntity
  8
C1
100
AcDbVertex
100
AcDb2dVertex
 10
12.03997
 20
9.263968
 30
0.0
 42
0.016167
  0
VERTEX
  5
4E6
100
AcDbEntity
  8
C1
100
AcDbVertex
100
AcDb2dVertex
 10
12.041682
 20
9.142884
 30
0.0
 42
0.028862
  0
VERTEX
  5
4E7
100
AcDbEntity
  8
C1
100
AcDbVertex
100
AcDb2dVertex
 10
11.745215
 20
8.834892
 30
0.0
 42
0.016342
  0
VERTEX
  5
4E8
100
AcDbEntity
  8
C1
100
AcDbVertex
100
AcDb2dVertex
 10
11.62941
 20
8.690493
 30
0.0
 42
-0.07313
  0
VERTEX
  5
4E9
100
AcDbEntity
  8
C1
100
AcDbVertex
100
AcDb2dVertex
 10
11.268027
 20
8.648363
 30
0.0
 42
-0.067609
  0
VERTEX
  5
4EA
100
AcDbEntity
  8
C1
100
AcDbVertex
100
AcDb2dVertex
 10
10.521449
 20
8.772648
 30
0.0
 42
-0.095131
  0
VERTEX
  5
4EB
100
AcDbEntity
  8
C1
100
AcDbVertex
100
AcDb2dVertex
 10
10.044648
 20
9.026762
 30
0.0
 42
-0.066503
  0
VERTEX
  5
4EC
100
AcDbEntity
  8
C1
100
AcDbVertex
100
AcDb2dVertex
 10
9.577107
 20
9.520029
 30
0.0
 42
-0.072287
  0
VERTEX
  5
4ED
100
AcDbEntity
  8
C1
100
AcDbVertex
100
AcDb2dVertex
 10
9.287318
 20
10.074636
 30
0.0
 42
-0.032395
  0
VERTEX
  5
4EE
100
AcDbEntity
  8
C1
100
AcDbVertex
100
AcDb2dVertex
 10
9.162344
 20
10.522011
 30
0.0
 42
-0.03906
  0
VERTEX
  5
4EF
100
AcDbEntity
  8
C1
100
AcDbVertex
100
AcDb2dVertex
 10
9.112549
 20
10.904203
 30
0.0
 42
-0.068342
  0
VERTEX
  5
4F0
100
AcDbEntity
  8
C1
100
AcDbVertex
100
AcDb2dVertex
 10
9.132599
 20
11.13953
 30
0.0
 42
-0.019512
  0
VERTEX
  5
4F1
100
AcDbEntity
  8
C1
100
AcDbVertex
100
AcDb2dVertex
 10
9.174063
 20
11.295097
 30
0.0
 42
-0.008108
  0
VERTEX
  5
4F2
100
AcDbEntity
  8
C1
100
AcDbVertex
100
AcDb2dVertex
 10
9.170805
 20
11.340818
 30
0.0
 42
-0.031581
  0
VERTEX
  5
4F3
100
AcDbEntity
  8
C1
100
AcDbVertex
100
AcDb2dVertex
 10
9.173438
 20
11.661147
 30
0.0
 42
-0.11232
  0
VERTEX
  5
4F4
100
AcDbEntity
  8
C1
100
AcDbVertex
100
AcDb2dVertex
 10
9.199933
 20
11.748324
 30
0.0
 42
-0.16587
  0
VERTEX
  5
4F5
100
AcDbEntity
  8
C1
100
AcDbVertex
100
AcDb2dVertex
 10
9.275503
 20
11.815045
 30
0.0
 42
-0.168387
  0
VERTEX
  5
4F6
100
AcDbEntity
  8
C1
100
AcDbVertex
100
AcDb2dVertex
 10
9.374702
 20
11.821093
 30
0.0
 42
-0.118633
  0
VERTEX
  5
4F7
100
AcDbEntity
  8
C1
100
AcDbVertex
100
AcDb2dVertex
 10
9.481015
 20
11.761779
 30
0.0
 42
-0.10125
  0
VERTEX
  5
4F8
100
AcDbEntity
  8
C1
100
AcDbVertex
100
AcDb2dVertex
 10
9.564035
 20
11.646448
 30
0.0
 42
-0.025041
  0
VERTEX
  5
4F9
100
AcDbEntity
  8
C1
100
AcDbVertex
100
AcDb2dVertex
 10
9.610191
 20
11.528159
 30
0.0
  0
VERTEX
  5
4FA
100
AcDbEntity
  8
C1
100
AcDbVertex
100
AcDb2dVertex
 10
9.690923
 20
11.27322
 30
0.0
  0
SEQEND
  5
4FB
100
AcDbEntity
  8
C1
  0
INSERT
  5
4FC
100
AcDbEntity
  8
CT1
100
AcDbBlockReference
  2
S_OFF
 10
9.684318
 20
10.329002
 30
0.0
 41
0.915702
 42
0.915702
 43
0.915702
 50
90.0
  0
INSERT
  5
4FD
100
AcDbEntity
  8
CT1
100
AcDbBlockReference
  2
P_ON
 10
12.161854
 20
9.881287
 30
0.0
 41
0.915702
 42
0.915702
 43
0.915702
 50
90.0
  0
POLYLINE
  5
4FE
100
AcDbEntity
  8
C1
100
AcDb2dPolyline
 66
     1
 10
0.0
 20
0.0
 30
0.0
 70
     2
  0
VERTEX
  5
4FF
100
AcDbEntity
  8
C1
100
AcDbVertex
100
AcDb2dVertex
 10
12.151262
 20
9.828906
 30
0.0
 42
0.024605
  0
VERTEX
  5
500
100
AcDbEntity
  8
C1
100
AcDbVertex
100
AcDb2dVertex
 10
11.962488
 20
10.172775
 30
0.0
 42
0.018445
  0
VERTEX
  5
501
100
AcDbEntity
  8
C1
100
AcDbVertex
100
AcDb2dVertex
 10
11.77876
 20
10.402681
 30
0.0
 42
0.119685
  0
VERTEX
  5
502
100
AcDbEntity
  8
C1
100
AcDbVertex
100
AcDb2dVertex
 10
11.090861
 20
10.838164
 30
0.0
 42
0.03113
  0
VERTEX
  5
503
100
AcDbEntity
  8
C1
100
AcDbVertex
100
AcDb2dVertex
 10
10.749249
 20
10.915703
 30
0.0
 42
-0.149889
  0
VERTEX
  5
504
100
AcDbEntity
  8
C1
100
AcDbVertex
100
AcDb2dVertex
 10
10.876763
 20
11.206901
 30
0.0
 42
-0.066615
  0
VERTEX
  5
505
100
AcDbEntity
  8
C1
100
AcDbVertex
100
AcDb2dVertex
 10
11.051034
 20
11.362063
 30
0.0
 42
-0.07381
  0
VERTEX
  5
506
100
AcDbEntity
  8
C1
100
AcDbVertex
100
AcDb2dVertex
 10
11.241118
 20
11.453199
 30
0.0
 42
-0.119126
  0
VERTEX
  5
507
100
AcDbEntity
  8
C1
100
AcDbVertex
100
AcDb2dVertex
 10
11.512039
 20
11.470177
 30
0.0
 42
-0.014229
  0
VERTEX
  5
508
100
AcDbEntity
  8
C1
100
AcDbVertex
100
AcDb2dVertex
 10
11.550851
 20
11.462188
 30
0.0
 42
-0.011955
  0
VERTEX
  5
509
100
AcDbEntity
  8
C1
100
AcDbVertex
100
AcDb2dVertex
 10
11.579154
 20
11.483809
 30
0.0
 42
-0.118351
  0
VERTEX
  5
50A
100
AcDbEntity
  8
C1
100
AcDbVertex
100
AcDb2dVertex
 10
11.841231
 20
11.592411
 30
0.0
 42
-0.109835
  0
VERTEX
  5
50B
100
AcDbEntity
  8
C1
100
AcDbVertex
100
AcDb2dVertex
 10
12.217335
 20
11.569231
 30
0.0
 42
-0.138265
  0
VERTEX
  5
50C
100
AcDbEntity
  8
C1
100
AcDbVertex
100
AcDb2dVertex
 10
12.473493
 20
11.410365
 30
0.0
 42
-0.106422
  0
VERTEX
  5
50D
100
AcDbEntity
  8
C1
100
AcDbVertex
100
AcDb2dVertex
 10
12.669085
 20
11.075645
 30
0.0
 42
-0.145408
  0
VERTEX
  5
50E
100
AcDbEntity
  8
C1
100
AcDbVertex
100
AcDb2dVertex
 10
12.677103
 20
10.789266
 30
0.0
 42
-0.024557
  0
VERTEX
  5
50F
100
AcDbEntity
  8
C1
100
AcDbVertex
100
AcDb2dVertex
 10
12.593901
 20
10.529438
 30
0.0
 42
-0.036142
  0
VERTEX
  5
510
100
AcDbEntity
  8
C1
100
AcDbVertex
100
AcDb2dVertex
 10
12.516358
 20
10.360922
 30
0.0
 42
-0.04024
  0
VERTEX
  5
511
100
AcDbEntity
  8
C1
100
AcDbVertex
100
AcDb2dVertex
 10
12.336419
 20
10.088627
 30
0.0
 42
0.05322
  0
VERTEX
  5
512
100
AcDbEntity
  8
C1
100
AcDbVertex
100
AcDb2dVertex
 10
12.205586
 20
9.879035
 30
0.0
  0
VERTEX
  5
513
100
AcDbEntity
  8
C1
100
AcDbVertex
100
AcDb2dVertex
 10
12.171936
 20
9.799768
 30
0.0
  0
SEQEND
  5
514
100
AcDbEntity
  8
C1
  0
INSERT
  5
515
100
AcDbEntity
  8
CT1
100
AcDbBlockReference
  2
S_OFF
 10
11.990129
 20
10.815334
 30
0.0
 41
0.915702
 42
0.915702
 43
0.915702
 50
90.0
  0
INSERT
  5
516
100
AcDbEntity
  8
CT1
100
AcDbBlockReference
  2
P_ON
 10
12.176393
 20
9.297929
 30
0.0
 41
0.915702
 42
0.915702
 43
0.915702
 50
90.0
  0
POLYLINE
  5
517
100
AcDbEntity
  8
C1
100
AcDb2dPolyline
 66
     1
 10
0.0
 20
0.0
 30
0.0
 70
     2
  0
VERTEX
  5
518
100
AcDbEntity
  8
C1
100
AcDbVertex
100
AcDb2dVertex
 10
12.150509
 20
9.242622
 30
0.0
 42
-0.023091
  0
VERTEX
  5
519
100
AcDbEntity
  8
C1
100
AcDbVertex
100
AcDb2dVertex
 10
12.1539
 20
9.325222
 30
0.0
 42
-0.025417
  0
VERTEX
  5
51A
100
AcDbEntity
  8
C1
100
AcDbVertex
100
AcDb2dVertex
 10
12.175083
 20
9.41369
 30
0.0
 42
-0.024277
  0
VERTEX
  5
51B
100
AcDbEntity
  8
C1
100
AcDbVertex
100
AcDb2dVertex
 10
12.308372
 20
9.813556
 30
0.0
 42
-0.002432
  0
VERTEX
  5
51C
100
AcDbEntity
  8
C1
100
AcDbVertex
100
AcDb2dVertex
 10
12.462987
 20
10.053475
 30
0.0
 42
-0.002661
  0
VERTEX
  5
51D
100
AcDbEntity
  8
C1
100
AcDbVertex
100
AcDb2dVertex
 10
12.548292
 20
10.181433
 30
0.0
 42
0.016719
  0
VERTEX
  5
51E
100
AcDbEntity
  8
C1
100
AcDbVertex
100
AcDb2dVertex
 10
12.686912
 20
9.941513
 30
0.0
 42
0.033767
  0
VERTEX
  5
51F
100
AcDbEntity
  8
C1
100
AcDbVertex
100
AcDb2dVertex
 10
13.220067
 20
9.397695
 30
0.0
 42
-0.007046
  0
VERTEX
  5
520
100
AcDbEntity
  8
C1
100
AcDbVertex
100
AcDb2dVertex
 10
13.40134
 20
9.163107
 30
0.0
 42
-0.044996
  0
VERTEX
  5
521
100
AcDbEntity
  8
C1
100
AcDbVertex
100
AcDb2dVertex
 10
13.518634
 20
8.923187
 30
0.0
 42
0.047611
  0
VERTEX
  5
522
100
AcDbEntity
  8
C1
100
AcDbVertex
100
AcDb2dVertex
 10
13.268051
 20
9.216422
 30
0.0
 42
0.024148
  0
VERTEX
  5
523
100
AcDbEntity
  8
C1
100
AcDbVertex
100
AcDb2dVertex
 10
12.953489
 20
9.387032
 30
0.0
 42
0.052506
  0
VERTEX
  5
524
100
AcDbEntity
  8
C1
100
AcDbVertex
100
AcDb2dVertex
 10
12.569618
 20
9.424353
 30
0.0
 42
0.037733
  0
VERTEX
  5
525
100
AcDbEntity
  8
C1
100
AcDbVertex
100
AcDb2dVertex
 10
12.308372
 20
9.349711
 30
0.0
 42
0.062131
  0
VERTEX
  5
526
100
AcDbEntity
  8
C1
100
AcDbVertex
100
AcDb2dVertex
 10
12.16442
 20
9.237748
 30
0.0
  0
SEQEND
  5
527
100
AcDbEntity
  8
C1
  0
INSERT
  5
528
100
AcDbEntity
  8
CT1
100
AcDbBlockReference
  2
S_OFF
 10
12.414939
 20
9.494963
 30
0.0
 41
0.915702
 42
0.915702
 43
0.915702
 50
90.0
  0
INSERT
  5
529
100
AcDbEntity
  8
CT1
100
AcDbBlockReference
  2
P_ON
 10
11.415756
 20
7.954452
 30
0.0
 41
0.915702
 42
0.915702
 43
0.915702
 50
90.0
  0
POLYLINE
  5
52A
100
AcDbEntity
  8
C1
100
AcDb2dPolyline
 66
     1
 10
0.0
 20
0.0
 30
0.0
  0
VERTEX
  5
52B
100
AcDbEntity
  8
C1
100
AcDbVertex
100
AcDb2dVertex
 10
11.381849
 20
7.942562
 30
0.0
  0
VERTEX
  5
52C
100
AcDbEntity
  8
C1
100
AcDbVertex
100
AcDb2dVertex
 10
11.425557
 20
8.06332
 30
0.0
  0
VERTEX
  5
52D
100
AcDbEntity
  8
C1
100
AcDbVertex
100
AcDb2dVertex
 10
11.467931
 20
8.164348
 30
0.0
 42
-0.036433
  0
VERTEX
  5
52E
100
AcDbEntity
  8
C1
100
AcDbVertex
100
AcDb2dVertex
 10
11.558038
 20
8.349303
 30
0.0
 42
-0.045645
  0
VERTEX
  5
52F
100
AcDbEntity
  8
C1
100
AcDbVertex
100
AcDb2dVertex
 10
11.843183
 20
8.75092
 30
0.0
 42
-0.039661
  0
VERTEX
  5
530
100
AcDbEntity
  8
C1
100
AcDbVertex
100
AcDb2dVertex
 10
12.244814
 20
9.150542
 30
0.0
 42
-0.060063
  0
VERTEX
  5
531
100
AcDbEntity
  8
C1
100
AcDbVertex
100
AcDb2dVertex
 10
12.395177
 20
9.249836
 30
0.0
 42
-0.004838
  0
VERTEX
  5
532
100
AcDbEntity
  8
C1
100
AcDbVertex
100
AcDb2dVertex
 10
12.440069
 20
9.271742
 30
0.0
 42
-0.074291
  0
VERTEX
  5
533
100
AcDbEntity
  8
C1
100
AcDbVertex
100
AcDb2dVertex
 10
12.674411
 20
9.306754
 30
0.0
 42
-0.153131
  0
VERTEX
  5
534
100
AcDbEntity
  8
C1
100
AcDbVertex
100
AcDb2dVertex
 10
13.132262
 20
9.163165
 30
0.0
 42
-0.125489
  0
VERTEX
  5
535
100
AcDbEntity
  8
C1
100
AcDbVertex
100
AcDb2dVertex
 10
13.391518
 20
8.863558
 30
0.0
 42
-0.080192
  0
VERTEX
  5
536
100
AcDbEntity
  8
C1
100
AcDbVertex
100
AcDb2dVertex
 10
13.467912
 20
8.619712
 30
0.0
 42
-0.037707
  0
VERTEX
  5
537
100
AcDbEntity
  8
C1
100
AcDbVertex
100
AcDb2dVertex
 10
13.364298
 20
8.316729
 30
0.0
 42
-0.051665
  0
VERTEX
  5
538
100
AcDbEntity
  8
C1
100
AcDbVertex
100
AcDb2dVertex
 10
13.151098
 20
7.933898
 30
0.0
 42
-0.062783
  0
VERTEX
  5
539
100
AcDbEntity
  8
C1
100
AcDbVertex
100
AcDb2dVertex
 10
12.793767
 20
7.540007
 30
0.0
 42
-0.012104
  0
VERTEX
  5
53A
100
AcDbEntity
  8
C1
100
AcDbVertex
100
AcDb2dVertex
 10
12.714024
 20
7.474937
 30
0.0
 42
-0.019576
  0
VERTEX
  5
53B
100
AcDbEntity
  8
C1
100
AcDbVertex
100
AcDb2dVertex
 10
12.718096
 20
7.370989
 30
0.0
 42
-0.088156
  0
VERTEX
  5
53C
100
AcDbEntity
  8
C1
100
AcDbVertex
100
AcDb2dVertex
 10
12.636739
 20
6.913139
 30
0.0
 42
-0.085967
  0
VERTEX
  5
53D
100
AcDbEntity
  8
C1
100
AcDbVertex
100
AcDb2dVertex
 10
12.410062
 20
6.520184
 30
0.0
 42
-0.011896
  0
VERTEX
  5
53E
100
AcDbEntity
  8
C1
100
AcDbVertex
100
AcDb2dVertex
 10
12.264724
 20
6.373946
 30
0.0
 42
0.038971
  0
VERTEX
  5
53F
100
AcDbEntity
  8
C1
100
AcDbVertex
100
AcDb2dVertex
 10
12.037003
 20
6.955316
 30
0.0
 42
0.008119
  0
VERTEX
  5
540
100
AcDbEntity
  8
C1
100
AcDbVertex
100
AcDb2dVertex
 10
11.964355
 20
7.099235
 30
0.0
 42
-0.013114
  0
VERTEX
  5
541
100
AcDbEntity
  8
C1
100
AcDbVertex
100
AcDb2dVertex
 10
11.923366
 20
7.182494
 30
0.0
 42
-0.087173
  0
VERTEX
  5
542
100
AcDbEntity
  8
C1
100
AcDbVertex
100
AcDb2dVertex
 10
11.876059
 20
7.362245
 30
0.0
 42
0.075545
  0
VERTEX
  5
543
100
AcDbEntity
  8
C1
100
AcDbVertex
100
AcDb2dVertex
 10
11.810677
 20
7.636243
 30
0.0
 42
0.152503
  0
VERTEX
  5
544
100
AcDbEntity
  8
C1
100
AcDbVertex
100
AcDb2dVertex
 10
11.674208
 20
7.802362
 30
0.0
  0
VERTEX
  5
545
100
AcDbEntity
  8
C1
100
AcDbVertex
100
AcDb2dVertex
 10
11.379883
 20
7.933614
 30
0.0
  0
SEQEND
  5
546
100
AcDbEntity
  8
C1
  0
INSERT
  5
547
100
AcDbEntity
  8
CT1
100
AcDbBlockReference
  2
S_OFF
 10
11.999824
 20
8.021113
 30
0.0
 41
0.915702
 42
0.915702
 43
0.915702
 50
90.0
  0
INSERT
  5
548
100
AcDbEntity
  8
CT1
100
AcDbBlockReference
  2
P_ON
 10
11.38705
 20
7.771823
 30
0.0
 41
0.915702
 42
0.915702
 43
0.915702
 50
90.0
  0
POLYLINE
  5
549
100
AcDbEntity
  8
C1
100
AcDb2dPolyline
 66
     1
 10
0.0
 20
0.0
 30
0.0
 70
     2
  0
VERTEX
  5
54A
100
AcDbEntity
  8
C1
100
AcDbVertex
100
AcDb2dVertex
 10
11.380342
 20
7.805643
 30
0.0
 42
-0.040697
  0
VERTEX
  5
54B
100
AcDbEntity
  8
C1
100
AcDbVertex
100
AcDb2dVertex
 10
11.525031
 20
7.751324
 30
0.0
 42
-0.026116
  0
VERTEX
  5
54C
100
AcDbEntity
  8
C1
100
AcDbVertex
100
AcDb2dVertex
 10
11.605621
 20
7.693023
 30
0.0
 42
-0.149631
  0
VERTEX
  5
54D
100
AcDbEntity
  8
C1
100
AcDbVertex
100
AcDb2dVertex
 10
11.691094
 20
7.587779
 30
0.0
 42
-0.075545
  0
VERTEX
  5
54E
100
AcDbEntity
  8
C1
100
AcDbVertex
100
AcDb2dVertex
 10
11.747477
 20
7.351491
 30
0.0
 42
0.087173
  0
VERTEX
  5
54F
100
AcDbEntity
  8
C1
100
AcDbVertex
100
AcDb2dVertex
 10
11.806149
 20
7.128558
 30
0.0
 42
0.013114
  0
VERTEX
  5
550
100
AcDbEntity
  8
C1
100
AcDbVertex
100
AcDb2dVertex
 10
11.850127
 20
7.039228
 30
0.0
 42
-0.008119
  0
VERTEX
  5
551
100
AcDbEntity
  8
C1
100
AcDbVertex
100
AcDb2dVertex
 10
11.920887
 20
6.899049
 30
0.0
 42
-0.051609
  0
VERTEX
  5
552
100
AcDbEntity
  8
C1
100
AcDbVertex
100
AcDb2dVertex
 10
12.193558
 20
6.147646
 30
0.0
 42
-0.270466
  0
VERTEX
  5
553
100
AcDbEntity
  8
C1
100
AcDbVertex
100
AcDb2dVertex
 10
12.156649
 20
6.020874
 30
0.0
 42
-0.19211
  0
VERTEX
  5
554
100
AcDbEntity
  8
C1
100
AcDbVertex
100
AcDb2dVertex
 10
12.102109
 20
5.999116
 30
0.0
 42
-0.099661
  0
VERTEX
  5
555
100
AcDbEntity
  8
C1
100
AcDbVertex
100
AcDb2dVertex
 10
11.962465
 20
6.027229
 30
0.0
 42
-0.097322
  0
VERTEX
  5
556
100
AcDbEntity
  8
C1
100
AcDbVertex
100
AcDb2dVertex
 10
11.860343
 20
6.095808
 30
0.0
 42
-0.03698
  0
VERTEX
  5
557
100
AcDbEntity
  8
C1
100
AcDbVertex
100
AcDb2dVertex
 10
11.632537
 20
6.360056
 30
0.0
 42
-0.079113
  0
VERTEX
  5
558
100
AcDbEntity
  8
C1
100
AcDbVertex
100
AcDb2dVertex
 10
11.478921
 20
6.65538
 30
0.0
 42
-0.033884
  0
VERTEX
  5
559
100
AcDbEntity
  8
C1
100
AcDbVertex
100
AcDb2dVertex
 10
11.432326
 20
6.834854
 30
0.0
 42
-0.051051
  0
VERTEX
  5
55A
100
AcDbEntity
  8
C1
100
AcDbVertex
100
AcDb2dVertex
 10
11.324134
 20
7.208479
 30
0.0
 42
-0.122501
  0
VERTEX
  5
55B
100
AcDbEntity
  8
C1
100
AcDbVertex
100
AcDb2dVertex
 10
11.359904
 20
7.767203
 30
0.0
  0
VERTEX
  5
55C
100
AcDbEntity
  8
C1
100
AcDbVertex
100
AcDb2dVertex
 10
11.37073
 20
7.8009
 30
0.0
  0
SEQEND
  5
55D
100
AcDbEntity
  8
C1
  0
INSERT
  5
55E
100
AcDbEntity
  8
CT1
100
AcDbBlockReference
  2
S_OFF
 10
11.451414
 20
7.248008
 30
0.0
 41
0.915702
 42
0.915702
 43
0.915702
 50
90.0
  0
ENDBLK
  5
55F
100
AcDbEntity
  8
C1
100
AcDbBlockEnd
  0
BLOCK
  5
560
100
AcDbEntity
  8
C1
100
AcDbBlockBegin
  2
FLOWER2
 70
    64
 10
0.0
 20
0.0
 30
0.0
  3
FLOWER2
  1

  0
INSERT
  5
561
100
AcDbEntity
  8
CT1
100
AcDbBlockReference
  2
P_ON
 10
31.315744
 20
1.869653
 30
0.0
 41
0.915702
 42
0.915702
 43
0.915702
 50
90.0
  0
POLYLINE
  5
562
100
AcDbEntity
  8
C1
100
AcDb2dPolyline
 66
     1
 10
0.0
 20
0.0
 30
0.0
 70
     1
  0
VERTEX
  5
563
100
AcDbEntity
  8
C1
100
AcDbVertex
100
AcDb2dVertex
 10
31.503756
 20
1.882304
 30
0.0
  0
VERTEX
  5
564
100
AcDbEntity
  8
C1
100
AcDbVertex
100
AcDb2dVertex
 10
29.516306
 20
1.882304
 30
0.0
 42
-0.002454
  0
VERTEX
  5
565
100
AcDbEntity
  8
C1
100
AcDbVertex
100
AcDb2dVertex
 10
29.127513
 20
1.810036
 30
0.0
 42
-0.004529
  0
VERTEX
  5
566
100
AcDbEntity
  8
C1
100
AcDbVertex
100
AcDb2dVertex
 10
28.791872
 20
1.752484
 30
0.0
 42
-0.006457
  0
VERTEX
  5
567
100
AcDbEntity
  8
C1
100
AcDbVertex
100
AcDb2dVertex
 10
28.512854
 20
1.710929
 30
0.0
 42
-0.004923
  0
VERTEX
  5
568
100
AcDbEntity
  8
C1
100
AcDbVertex
100
AcDb2dVertex
 10
28.139334
 20
1.663961
 30
0.0
 42
-0.020984
  0
VERTEX
  5
569
100
AcDbEntity
  8
C1
100
AcDbVertex
100
AcDb2dVertex
 10
27.821184
 20
1.640607
 30
0.0
 42
-0.011813
  0
VERTEX
  5
56A
100
AcDbEntity
  8
C1
100
AcDbVertex
100
AcDb2dVertex
 10
27.208129
 20
1.635893
 30
0.0
 42
-0.020305
  0
VERTEX
  5
56B
100
AcDbEntity
  8
C1
100
AcDbVertex
100
AcDb2dVertex
 10
26.613695
 20
1.669539
 30
0.0
 42
-0.013416
  0
VERTEX
  5
56C
100
AcDbEntity
  8
C1
100
AcDbVertex
100
AcDb2dVertex
 10
25.688243
 20
1.784864
 30
0.0
 42
-0.009007
  0
VERTEX
  5
56D
100
AcDbEntity
  8
C1
100
AcDbVertex
100
AcDb2dVertex
 10
25.136105
 20
1.878973
 30
0.0
  0
VERTEX
  5
56E
100
AcDbEntity
  8
C1
100
AcDbVertex
100
AcDb2dVertex
 10
23.343801
 20
1.878973
 30
0.0
 42
0.011874
  0
VERTEX
  5
56F
100
AcDbEntity
  8
C1
100
AcDbVertex
100
AcDb2dVertex
 10
23.993993
 20
1.67568
 30
0.0
 42
0.017763
  0
VERTEX
  5
570
100
AcDbEntity
  8
C1
100
AcDbVertex
100
AcDb2dVertex
 10
24.715116
 20
1.496329
 30
0.0
 42
0.01436
  0
VERTEX
  5
571
100
AcDbEntity
  8
C1
100
AcDbVertex
100
AcDb2dVertex
 10
25.619457
 20
1.33221
 30
0.0
 42
0.013416
  0
VERTEX
  5
572
100
AcDbEntity
  8
C1
100
AcDbVertex
100
AcDb2dVertex
 10
26.569287
 20
1.213847
 30
0.0
 42
0.020305
  0
VERTEX
  5
573
100
AcDbEntity
  8
C1
100
AcDbVertex
100
AcDb2dVertex
 10
27.200833
 20
1.1781
 30
0.0
 42
0.011813
  0
VERTEX
  5
574
100
AcDbEntity
  8
C1
100
AcDbVertex
100
AcDb2dVertex
 10
27.835519
 20
1.18298
 30
0.0
 42
0.020984
  0
VERTEX
  5
575
100
AcDbEntity
  8
C1
100
AcDbVertex
100
AcDb2dVertex
 10
28.19198
 20
1.209147
 30
0.0
 42
0.004923
  0
VERTEX
  5
576
100
AcDbEntity
  8
C1
100
AcDbVertex
100
AcDb2dVertex
 10
28.574445
 20
1.25724
 30
0.0
 42
0.006457
  0
VERTEX
  5
577
100
AcDbEntity
  8
C1
100
AcDbVertex
100
AcDb2dVertex
 10
28.86516
 20
1.300537
 30
0.0
 42
0.004529
  0
VERTEX
  5
578
100
AcDbEntity
  8
C1
100
AcDbVertex
100
AcDb2dVertex
 10
29.208975
 20
1.35949
 30
0.0
 42
0.003113
  0
VERTEX
  5
579
100
AcDbEntity
  8
C1
100
AcDbVertex
100
AcDb2dVertex
 10
29.707741
 20
1.452881
 30
0.0
 42
0.011285
  0
VERTEX
  5
57A
100
AcDbEntity
  8
C1
100
AcDbVertex
100
AcDb2dVertex
 10
30.438402
 20
1.611594
 30
0.0
 42
0.006186
  0
SEQEND
  5
57B
100
AcDbEntity
  8
C1
  0
INSERT
  5
57C
100
AcDbEntity
  8
CT1
100
AcDbBlockReference
  2
S_OFF
 10
30.962372
 20
1.154518
 30
0.0
 41
0.915702
 42
0.915702
 43
0.915702
 50
90.0
  0
INSERT
  5
57D
100
AcDbEntity
  8
CT1
100
AcDbBlockReference
  2
P_ON
 10
21.953533
 20
2.494705
 30
0.0
 41
0.915702
 42
0.915702
 43
0.915702
 50
90.0
  0
POLYLINE
  5
57E
100
AcDbEntity
  8
C1
100
AcDb2dPolyline
 66
     1
 10
0.0
 20
0.0
 30
0.0
  0
VERTEX
  5
57F
100
AcDbEntity
  8
C1
100
AcDbVertex
100
AcDb2dVertex
 10
21.965985
 20
2.467708
 30
0.0
 42
-0.008829
  0
VERTEX
  5
580
100
AcDbEntity
  8
C1
100
AcDbVertex
100
AcDb2dVertex
 10
21.658137
 20
2.630935
 30
0.0
 42
-0.003104
  0
VERTEX
  5
581
100
AcDbEntity
  8
C1
100
AcDbVertex
100
AcDb2dVertex
 10
20.882355
 20
3.067662
 30
0.0
 42
-0.01107
  0
VERTEX
  5
582
100
AcDbEntity
  8
C1
100
AcDbVertex
100
AcDb2dVertex
 10
20.333962
 20
3.397188
 30
0.0
 42
0.029873
  0
VERTEX
  5
583
100
AcDbEntity
  8
C1
100
AcDbVertex
100
AcDb2dVertex
 10
20.848182
 20
3.59634
 30
0.0
 42
0.002683
  0
VERTEX
  5
584
100
AcDbEntity
  8
C1
100
AcDbVertex
100
AcDb2dVertex
 10
20.86876
 20
3.605892
 30
0.0
 42
0.00498
  0
VERTEX
  5
585
100
AcDbEntity
  8
C1
100
AcDbVertex
100
AcDb2dVertex
 10
21.109431
 20
3.465234
 30
0.0
 42
0.003104
  0
VERTEX
  5
586
100
AcDbEntity
  8
C1
100
AcDbVertex
100
AcDb2dVertex
 10
21.880259
 20
3.031296
 30
0.0
 42
0.008829
  0
VERTEX
  5
587
100
AcDbEntity
  8
C1
100
AcDbVertex
100
AcDb2dVertex
 10
22.142305
 20
2.891905
 30
0.0
 42
0.006166
  0
VERTEX
  5
588
100
AcDbEntity
  8
C1
100
AcDbVertex
100
AcDb2dVertex
 10
22.431927
 20
2.748816
 30
0.0
 42
0.005016
  0
VERTEX
  5
589
100
AcDbEntity
  8
C1
100
AcDbVertex
100
AcDb2dVertex
 10
22.796041
 20
2.578945
 30
0.0
 42
0.011067
  0
VERTEX
  5
58A
100
AcDbEntity
  8
C1
100
AcDbVertex
100
AcDb2dVertex
 10
23.061191
 20
2.465479
 30
0.0
  0
VERTEX
  5
58B
100
AcDbEntity
  8
C1
100
AcDbVertex
100
AcDb2dVertex
 10
21.970847
 20
2.465479
 30
0.0
  0
SEQEND
  5
58C
100
AcDbEntity
  8
C1
  0
INSERT
  5
58D
100
AcDbEntity
  8
CT1
100
AcDbBlockReference
  2
S_OFF
 10
23.078454
 20
2.849308
 30
0.0
 41
0.915702
 42
0.915702
 43
0.915702
 50
90.0
  0
INSERT
  5
58E
100
AcDbEntity
  8
CT1
100
AcDbBlockReference
  2
P_ON
 10
20.100972
 20
3.29269
 30
0.0
 41
0.915702
 42
0.915702
 43
0.915702
 50
90.0
  0
POLYLINE
  5
58F
100
AcDbEntity
  8
C1
100
AcDb2dPolyline
 66
     1
 10
0.0
 20
0.0
 30
0.0
  0
VERTEX
  5
590
100
AcDbEntity
  8
C1
100
AcDbVertex
100
AcDb2dVertex
 10
20.148792
 20
3.331402
 30
0.0
 42
-0.072477
  0
VERTEX
  5
591
100
AcDbEntity
  8
C1
100
AcDbVertex
100
AcDb2dVertex
 10
19.701356
 20
2.757598
 30
0.0
 42
-0.155647
  0
VERTEX
  5
592
100
AcDbEntity
  8
C1
100
AcDbVertex
100
AcDb2dVertex
 10
19.428656
 20
2.632263
 30
0.0
 42
-0.100364
  0
VERTEX
  5
593
100
AcDbEntity
  8
C1
100
AcDbVertex
100
AcDb2dVertex
 10
19.103457
 20
2.6577
 30
0.0
 42
-0.279867
  0
VERTEX
  5
594
100
AcDbEntity
  8
C1
100
AcDbVertex
100
AcDb2dVertex
 10
19.018616
 20
2.749337
 30
0.0
 42
-0.085993
  0
VERTEX
  5
595
100
AcDbEntity
  8
C1
100
AcDbVertex
100
AcDb2dVertex
 10
19.015061
 20
2.869518
 30
0.0
 42
-0.012653
  0
VERTEX
  5
596
100
AcDbEntity
  8
C1
100
AcDbVertex
100
AcDb2dVertex
 10
19.066959
 20
3.176835
 30
0.0
 42
0.040711
  0
VERTEX
  5
597
100
AcDbEntity
  8
C1
100
AcDbVertex
100
AcDb2dVertex
 10
19.843766
 20
3.269454
 30
0.0
  0
VERTEX
  5
598
100
AcDbEntity
  8
C1
100
AcDbVertex
100
AcDb2dVertex
 10
20.155257
 20
3.343941
 30
0.0
  0
SEQEND
  5
599
100
AcDbEntity
  8
C1
  0
INSERT
  5
59A
100
AcDbEntity
  8
CT1
100
AcDbBlockReference
  2
S_OFF
 10
20.214539
 20
2.761715
 30
0.0
 41
0.915702
 42
0.915702
 43
0.915702
 50
90.0
  0
INSERT
  5
59B
100
AcDbEntity
  8
CT1
100
AcDbBlockReference
  2
P_ON
 10
16.20584
 20
1.57116
 30
0.0
 41
0.915702
 42
0.915702
 43
0.915702
 50
90.0
  0
POLYLINE
  5
59C
100
AcDbEntity
  8
C1
100
AcDb2dPolyline
 66
     1
 10
0.0
 20
0.0
 30
0.0
  0
VERTEX
  5
59D
100
AcDbEntity
  8
C1
100
AcDbVertex
100
AcDb2dVertex
 10
16.163242
 20
1.577063
 30
0.0
 42
-0.06782
  0
VERTEX
  5
59E
100
AcDbEntity
  8
C1
100
AcDbVertex
100
AcDb2dVertex
 10
16.061881
 20
1.870111
 30
0.0
 42
-0.060719
  0
VERTEX
  5
59F
100
AcDbEntity
  8
C1
100
AcDbVertex
100
AcDb2dVertex
 10
16.053577
 20
2.511104
 30
0.0
 42
-0.036042
  0
VERTEX
  5
5A0
100
AcDbEntity
  8
C1
100
AcDbVertex
100
AcDb2dVertex
 10
16.246872
 20
3.571008
 30
0.0
 42
-0.039001
  0
VERTEX
  5
5A1
100
AcDbEntity
  8
C1
100
AcDbVertex
100
AcDb2dVertex
 10
16.557709
 20
4.477303
 30
0.0
 42
-0.069342
  0
VERTEX
  5
5A2
100
AcDbEntity
  8
C1
100
AcDbVertex
100
AcDb2dVertex
 10
16.838841
 20
4.939121
 30
0.0
 42
-0.094949
  0
VERTEX
  5
5A3
100
AcDbEntity
  8
C1
100
AcDbVertex
100
AcDb2dVertex
 10
17.092613
 20
5.151216
 30
0.0
 42
-0.038002
  0
VERTEX
  5
5A4
100
AcDbEntity
  8
C1
100
AcDbVertex
100
AcDb2dVertex
 10
17.837791
 20
5.493761
 30
0.0
 42
-0.099458
  0
VERTEX
  5
5A5
100
AcDbEntity
  8
C1
100
AcDbVertex
100
AcDb2dVertex
 10
18.656601
 20
5.623084
 30
0.0
 42
-0.028582
  0
VERTEX
  5
5A6
100
AcDbEntity
  8
C1
100
AcDbVertex
100
AcDb2dVertex
 10
18.98987
 20
5.590061
 30
0.0
 42
0.000757
  0
VERTEX
  5
5A7
100
AcDbEntity
  8
C1
100
AcDbVertex
100
AcDb2dVertex
 10
18.982841
 20
5.586811
 30
0.0
 42
0.105837
  0
VERTEX
  5
5A8
100
AcDbEntity
  8
C1
100
AcDbVertex
100
AcDb2dVertex
 10
18.754524
 20
5.414867
 30
0.0
 42
0.068126
  0
VERTEX
  5
5A9
100
AcDbEntity
  8
C1
100
AcDbVertex
100
AcDb2dVertex
 10
18.539805
 20
5.08598
 30
0.0
 42
0.132036
  0
VERTEX
  5
5AA
100
AcDbEntity
  8
C1
100
AcDbVertex
100
AcDb2dVertex
 10
18.481825
 20
4.76698
 30
0.0
 42
-0.039955
  0
VERTEX
  5
5AB
100
AcDbEntity
  8
C1
100
AcDbVertex
100
AcDb2dVertex
 10
18.454226
 20
4.532693
 30
0.0
 42
0.012346
  0
VERTEX
  5
5AC
100
AcDbEntity
  8
C1
100
AcDbVertex
100
AcDb2dVertex
 10
18.200251
 20
4.448843
 30
0.0
 42
0.041729
  0
VERTEX
  5
5AD
100
AcDbEntity
  8
C1
100
AcDbVertex
100
AcDb2dVertex
 10
17.728089
 20
4.20865
 30
0.0
 42
0.094535
  0
VERTEX
  5
5AE
100
AcDbEntity
  8
C1
100
AcDbVertex
100
AcDb2dVertex
 10
17.527804
 20
4.024847
 30
0.0
 42
0.146468
  0
VERTEX
  5
5AF
100
AcDbEntity
  8
C1
100
AcDbVertex
100
AcDb2dVertex
 10
17.442788
 20
3.791154
 30
0.0
 42
0.00477
  0
VERTEX
  5
5B0
100
AcDbEntity
  8
C1
100
AcDbVertex
100
AcDb2dVertex
 10
17.450835
 20
3.584515
 30
0.0
 42
0.032083
  0
VERTEX
  5
5B1
100
AcDbEntity
  8
C1
100
AcDbVertex
100
AcDb2dVertex
 10
18.110953
 20
3.290118
 30
0.0
 42
0.074438
  0
VERTEX
  5
5B2
100
AcDbEntity
  8
C1
100
AcDbVertex
100
AcDb2dVertex
 10
18.77043
 20
3.174915
 30
0.0
 42
0.008549
  0
VERTEX
  5
5B3
100
AcDbEntity
  8
C1
100
AcDbVertex
100
AcDb2dVertex
 10
18.934956
 20
3.173723
 30
0.0
 42
0.011527
  0
VERTEX
  5
5B4
100
AcDbEntity
  8
C1
100
AcDbVertex
100
AcDb2dVertex
 10
18.887329
 20
2.887778
 30
0.0
 42
0.085993
  0
VERTEX
  5
5B5
100
AcDbEntity
  8
C1
100
AcDbVertex
100
AcDb2dVertex
 10
18.892186
 20
2.723559
 30
0.0
 42
0.114135
  0
VERTEX
  5
5B6
100
AcDbEntity
  8
C1
100
AcDbVertex
100
AcDb2dVertex
 10
18.938865
 20
2.621353
 30
0.0
 42
-0.016837
  0
VERTEX
  5
5B7
100
AcDbEntity
  8
C1
100
AcDbVertex
100
AcDb2dVertex
 10
17.476351
 20
1.512148
 30
0.0
 42
-0.027026
  0
VERTEX
  5
5B8
100
AcDbEntity
  8
C1
100
AcDbVertex
100
AcDb2dVertex
 10
17.302979
 20
1.521526
 30
0.0
 42
-0.052759
  0
VERTEX
  5
5B9
100
AcDbEntity
  8
C1
100
AcDbVertex
100
AcDb2dVertex
 10
17.28187
 20
1.425574
 30
0.0
 42
-0.279439
  0
VERTEX
  5
5BA
100
AcDbEntity
  8
C1
100
AcDbVertex
100
AcDb2dVertex
 10
17.080955
 20
1.255013
 30
0.0
 42
-0.073623
  0
VERTEX
  5
5BB
100
AcDbEntity
  8
C1
100
AcDbVertex
100
AcDb2dVertex
 10
16.91938
 20
1.25309
 30
0.0
 42
0.062552
  0
VERTEX
  5
5BC
100
AcDbEntity
  8
C1
100
AcDbVertex
100
AcDb2dVertex
 10
16.729492
 20
1.255013
 30
0.0
 42
0.141692
  0
VERTEX
  5
5BD
100
AcDbEntity
  8
C1
100
AcDbVertex
100
AcDb2dVertex
 10
16.40034
 20
1.117276
 30
0.0
 42
-0.324128
  0
VERTEX
  5
5BE
100
AcDbEntity
  8
C1
100
AcDbVertex
100
AcDb2dVertex
 10
16.231586
 20
1.108671
 30
0.0
 42
-0.101985
  0
VERTEX
  5
5BF
100
AcDbEntity
  8
C1
100
AcDbVertex
100
AcDb2dVertex
 10
16.214409
 20
1.125637
 30
0.0
 42
-0.029726
  0
VERTEX
  5
5C0
100
AcDbEntity
  8
C1
100
AcDbVertex
100
AcDb2dVertex
 10
16.173009
 20
1.196477
 30
0.0
 42
-0.173785
  0
VERTEX
  5
5C1
100
AcDbEntity
  8
C1
100
AcDbVertex
100
AcDb2dVertex
 10
16.137319
 20
1.47978
 30
0.0
  0
VERTEX
  5
5C2
100
AcDbEntity
  8
C1
100
AcDbVertex
100
AcDb2dVertex
 10
16.167999
 20
1.56949
 30
0.0
  0
SEQEND
  5
5C3
100
AcDbEntity
  8
C1
  0
INSERT
  5
5C4
100
AcDbEntity
  8
CT1
100
AcDbBlockReference
  2
S_OFF
 10
16.588944
 20
1.851508
 30
0.0
 41
0.915702
 42
0.915702
 43
0.915702
 50
90.0
  0
INSERT
  5
5C5
100
AcDbEntity
  8
CT1
100
AcDbBlockReference
  2
P_ON
 10
17.063781
 20
5.294637
 30
0.0
 41
0.915702
 42
0.915702
 43
0.915702
 50
90.0
  0
POLYLINE
  5
5C6
100
AcDbEntity
  8
C1
100
AcDb2dPolyline
 66
     1
 10
0.0
 20
0.0
 30
0.0
  0
VERTEX
  5
5C7
100
AcDbEntity
  8
C1
100
AcDbVertex
100
AcDb2dVertex
 10
17.020345
 20
5.337579
 30
0.0
 42
-0.042639
  0
VERTEX
  5
5C8
100
AcDbEntity
  8
C1
100
AcDbVertex
100
AcDb2dVertex
 10
16.995087
 20
5.633229
 30
0.0
 42
-0.084685
  0
VERTEX
  5
5C9
100
AcDbEntity
  8
C1
100
AcDbVertex
100
AcDb2dVertex
 10
17.020345
 20
5.781292
 30
0.0
 42
-0.05281
  0
VERTEX
  5
5CA
100
AcDbEntity
  8
C1
100
AcDbVertex
100
AcDb2dVertex
 10
16.935348
 20
6.070895
 30
0.0
 42
-0.137664
  0
VERTEX
  5
5CB
100
AcDbEntity
  8
C1
100
AcDbVertex
100
AcDb2dVertex
 10
16.946349
 20
6.188028
 30
0.0
 42
-0.294284
  0
VERTEX
  5
5CC
100
AcDbEntity
  8
C1
100
AcDbVertex
100
AcDb2dVertex
 10
17.088958
 20
6.292253
 30
0.0
 42
-0.092229
  0
VERTEX
  5
5CD
100
AcDbEntity
  8
C1
100
AcDbVertex
100
AcDb2dVertex
 10
17.546195
 20
6.234698
 30
0.0
 42
-0.077951
  0
VERTEX
  5
5CE
100
AcDbEntity
  8
C1
100
AcDbVertex
100
AcDb2dVertex
 10
17.612315
 20
6.298956
 30
0.0
 42
-0.113097
  0
VERTEX
  5
5CF
100
AcDbEntity
  8
C1
100
AcDbVertex
100
AcDb2dVertex
 10
17.824098
 20
6.386081
 30
0.0
 42
-0.037721
  0
VERTEX
  5
5D0
100
AcDbEntity
  8
C1
100
AcDbVertex
100
AcDb2dVertex
 10
18.50027
 20
6.44686
 30
0.0
 42
-0.015116
  0
VERTEX
  5
5D1
100
AcDbEntity
  8
C1
100
AcDbVertex
100
AcDb2dVertex
 10
18.658696
 20
6.444326
 30
0.0
 42
0.00874
  0
VERTEX
  5
5D2
100
AcDbEntity
  8
C1
100
AcDbVertex
100
AcDb2dVertex
 10
18.75169
 20
6.307655
 30
0.0
 42
0.02094
  0
VERTEX
  5
5D3
100
AcDbEntity
  8
C1
100
AcDbVertex
100
AcDb2dVertex
 10
18.993443
 20
5.994105
 30
0.0
 42
0.021243
  0
VERTEX
  5
5D4
100
AcDbEntity
  8
C1
100
AcDbVertex
100
AcDb2dVertex
 10
19.264612
 20
5.697824
 30
0.0
 42
0.007736
  0
VERTEX
  5
5D5
100
AcDbEntity
  8
C1
100
AcDbVertex
100
AcDb2dVertex
 10
19.18983
 20
5.672084
 30
0.0
 42
0.039389
  0
VERTEX
  5
5D6
100
AcDbEntity
  8
C1
100
AcDbVertex
100
AcDb2dVertex
 10
18.661666
 20
5.744725
 30
0.0
 42
0.099458
  0
VERTEX
  5
5D7
100
AcDbEntity
  8
C1
100
AcDbVertex
100
AcDb2dVertex
 10
17.795483
 20
5.60792
 30
0.0
  0
VERTEX
  5
5D8
100
AcDbEntity
  8
C1
100
AcDbVertex
100
AcDb2dVertex
 10
17.036665
 20
5.267652
 30
0.0
  0
SEQEND
  5
5D9
100
AcDbEntity
  8
C1
  0
INSERT
  5
5DA
100
AcDbEntity
  8
CT1
100
AcDbBlockReference
  2
S_OFF
 10
17.354432
 20
5.701798
 30
0.0
 41
0.915702
 42
0.915702
 43
0.915702
 50
90.0
  0
INSERT
  5
5DB
100
AcDbEntity
  8
CT1
100
AcDbBlockReference
  2
P_ON
 10
19.419766
 20
5.783433
 30
0.0
 41
0.915702
 42
0.915702
 43
0.915702
 50
90.0
  0
POLYLINE
  5
5DC
100
AcDbEntity
  8
C1
100
AcDb2dPolyline
 66
     1
 10
0.0
 20
0.0
 30
0.0
  0
VERTEX
  5
5DD
100
AcDbEntity
  8
C1
100
AcDbVertex
100
AcDb2dVertex
 10
19.379017
 20
5.739182
 30
0.0
 42
-0.02094
  0
VERTEX
  5
5DE
100
AcDbEntity
  8
C1
100
AcDbVertex
100
AcDb2dVertex
 10
18.857083
 20
6.382095
 30
0.0
 42
-0.005506
  0
VERTEX
  5
5DF
100
AcDbEntity
  8
C1
100
AcDbVertex
100
AcDb2dVertex
 10
18.799556
 20
6.465476
 30
0.0
 42
-0.059599
  0
VERTEX
  5
5E0
100
AcDbEntity
  8
C1
100
AcDbVertex
100
AcDb2dVertex
 10
19.018244
 20
6.483836
 30
0.0
 42
-0.024298
  0
VERTEX
  5
5E1
100
AcDbEntity
  8
C1
100
AcDbVertex
100
AcDb2dVertex
 10
19.414277
 20
6.450536
 30
0.0
 42
-0.01335
  0
VERTEX
  5
5E2
100
AcDbEntity
  8
C1
100
AcDbVertex
100
AcDb2dVertex
 10
20.128187
 20
6.335932
 30
0.0
 42
-0.043943
  0
VERTEX
  5
5E3
100
AcDbEntity
  8
C1
100
AcDbVertex
100
AcDb2dVertex
 10
20.728953
 20
6.167269
 30
0.0
 42
-0.009271
  0
VERTEX
  5
5E4
100
AcDbEntity
  8
C1
100
AcDbVertex
100
AcDb2dVertex
 10
20.952875
 20
6.077813
 30
0.0
 42
0.000231
  0
VERTEX
  5
5E5
100
AcDbEntity
  8
C1
100
AcDbVertex
100
AcDb2dVertex
 10
20.610632
 20
6.014779
 30
0.0
 42
0.006782
  0
VERTEX
  5
5E6
100
AcDbEntity
  8
C1
100
AcDbVertex
100
AcDb2dVertex
 10
20.123271
 20
5.917931
 30
0.0
  0
VERTEX
  5
5E7
100
AcDbEntity
  8
C1
100
AcDbVertex
100
AcDb2dVertex
 10
19.405492
 20
5.739992
 30
0.0
  0
SEQEND
  5
5E8
100
AcDbEntity
  8
C1
  0
INSERT
  5
5E9
100
AcDbEntity
  8
CT1
100
AcDbBlockReference
  2
S_OFF
 10
19.563303
 20
5.956961
 30
0.0
 41
0.915702
 42
0.915702
 43
0.915702
 50
90.0
  0
INSERT
  5
5EA
100
AcDbEntity
  8
CT1
100
AcDbBlockReference
  2
P_ON
 10
17.821765
 20
6.540893
 30
0.0
 41
0.915702
 42
0.915702
 43
0.915702
 50
90.0
  0
POLYLINE
  5
5EB
100
AcDbEntity
  8
C1
100
AcDb2dPolyline
 66
     1
 10
0.0
 20
0.0
 30
0.0
  0
VERTEX
  5
5EC
100
AcDbEntity
  8
C1
100
AcDbVertex
100
AcDb2dVertex
 10
17.798073
 20
6.512536
 30
0.0
 42
-0.000872
  0
VERTEX
  5
5ED
100
AcDbEntity
  8
C1
100
AcDbVertex
100
AcDb2dVertex
 10
17.726938
 20
6.668477
 30
0.0
 42
-0.003074
  0
VERTEX
  5
5EE
100
AcDbEntity
  8
C1
100
AcDbVertex
100
AcDb2dVertex
 10
16.890487
 20
8.541108
 30
0.0
  0
VERTEX
  5
5EF
100
AcDbEntity
  8
C1
100
AcDbVertex
100
AcDb2dVertex
 10
17.4351
 20
8.440474
 30
0.0
 42
0.002606
  0
VERTEX
  5
5F0
100
AcDbEntity
  8
C1
100
AcDbVertex
100
AcDb2dVertex
 10
18.143825
 20
6.857771
 30
0.0
 42
0.001639
  0
VERTEX
  5
5F1
100
AcDbEntity
  8
C1
100
AcDbVertex
100
AcDb2dVertex
 10
18.276815
 20
6.567415
 30
0.0
 42
0.025745
  0
VERTEX
  5
5F2
100
AcDbEntity
  8
C1
100
AcDbVertex
100
AcDb2dVertex
 10
17.802897
 20
6.513359
 30
0.0
  0
SEQEND
  5
5F3
100
AcDbEntity
  8
C1
  0
INSERT
  5
5F4
100
AcDbEntity
  8
CT1
100
AcDbBlockReference
  2
S_OFF
 10
17.796206
 20
6.810042
 30
0.0
 41
0.915702
 42
0.915702
 43
0.915702
 50
90.0
  0
INSERT
  5
5F5
100
AcDbEntity
  8
CT1
100
AcDbBlockReference
  2
P_ON
 10
16.680458
 20
9.203516
 30
0.0
 41
0.915702
 42
0.915702
 43
0.915702
 50
90.0
  0
POLYLINE
  5
5F6
100
AcDbEntity
  8
C1
100
AcDb2dPolyline
 66
     1
 10
0.0
 20
0.0
 30
0.0
  0
VERTEX
  5
5F7
100
AcDbEntity
  8
C1
100
AcDbVertex
100
AcDb2dVertex
 10
16.645993
 20
9.166708
 30
0.0
 42
0.007511
  0
VERTEX
  5
5F8
100
AcDbEntity
  8
C1
100
AcDbVertex
100
AcDb2dVertex
 10
14.655856
 20
13.483904
 30
0.0
 42
0.024105
  0
VERTEX
  5
5F9
100
AcDbEntity
  8
C1
100
AcDbVertex
100
AcDb2dVertex
 10
14.182036
 20
14.324012
 30
0.0
 42
0.106526
  0
VERTEX
  5
5FA
100
AcDbEntity
  8
C1
100
AcDbVertex
100
AcDb2dVertex
 10
13.26144
 20
15.265873
 30
0.0
 42
0.117007
  0
VERTEX
  5
5FB
100
AcDbEntity
  8
C1
100
AcDbVertex
100
AcDb2dVertex
 10
12.133118
 20
15.679802
 30
0.0
 42
0.060827
  0
VERTEX
  5
5FC
100
AcDbEntity
  8
C1
100
AcDbVertex
100
AcDb2dVertex
 10
11.641407
 20
15.6784
 30
0.0
 42
0.105424
  0
VERTEX
  5
5FD
100
AcDbEntity
  8
C1
100
AcDbVertex
100
AcDb2dVertex
 10
11.371438
 20
15.584592
 30
0.0
 42
0.151632
  0
VERTEX
  5
5FE
100
AcDbEntity
  8
C1
100
AcDbVertex
100
AcDb2dVertex
 10
11.158321
 20
15.344199
 30
0.0
 42
0.066282
  0
VERTEX
  5
5FF
100
AcDbEntity
  8
C1
100
AcDbVertex
100
AcDb2dVertex
 10
11.094985
 20
15.133484
 30
0.0
 42
-0.032984
  0
VERTEX
  5
600
100
AcDbEntity
  8
C1
100
AcDbVertex
100
AcDb2dVertex
 10
10.99925
 20
15.197139
 30
0.0
 42
-0.108785
  0
VERTEX
  5
601
100
AcDbEntity
  8
C1
100
AcDbVertex
100
AcDb2dVertex
 10
10.757184
 20
15.483739
 30
0.0
 42
-0.043898
  0
VERTEX
  5
602
100
AcDbEntity
  8
C1
100
AcDbVertex
100
AcDb2dVertex
 10
10.805836
 20
15.687834
 30
0.0
 42
-0.137253
  0
VERTEX
  5
603
100
AcDbEntity
  8
C1
100
AcDbVertex
100
AcDb2dVertex
 10
11.055341
 20
16.056833
 30
0.0
 42
-0.119111
  0
VERTEX
  5
604
100
AcDbEntity
  8
C1
100
AcDbVertex
100
AcDb2dVertex
 10
11.501371
 20
16.28135
 30
0.0
 42
-0.084652
  0
VERTEX
  5
605
100
AcDbEntity
  8
C1
100
AcDbVertex
100
AcDb2dVertex
 10
12.19786
 20
16.323421
 30
0.0
 42
-0.114704
  0
VERTEX
  5
606
100
AcDbEntity
  8
C1
100
AcDbVertex
100
AcDb2dVertex
 10
13.410297
 20
15.898654
 30
0.0
 42
-0.105397
  0
VERTEX
  5
607
100
AcDbEntity
  8
C1
100
AcDbVertex
100
AcDb2dVertex
 10
14.406731
 20
14.921931
 30
0.0
 42
-0.028379
  0
VERTEX
  5
608
100
AcDbEntity
  8
C1
100
AcDbVertex
100
AcDb2dVertex
 10
15.016599
 20
13.877767
 30
0.0
 42
-0.010259
  0
VERTEX
  5
609
100
AcDbEntity
  8
C1
100
AcDbVertex
100
AcDb2dVertex
 10
16.474692
 20
10.869795
 30
0.0
 42
-0.018292
  0
VERTEX
  5
60A
100
AcDbEntity
  8
C1
100
AcDbVertex
100
AcDb2dVertex
 10
17.149612
 20
9.247606
 30
0.0
 42
-0.000977
  0
VERTEX
  5
60B
100
AcDbEntity
  8
C1
100
AcDbVertex
100
AcDb2dVertex
 10
17.208973
 20
9.087838
 30
0.0
  0
VERTEX
  5
60C
100
AcDbEntity
  8
C1
100
AcDbVertex
100
AcDb2dVertex
 10
16.656432
 20
9.179766
 30
0.0
  0
SEQEND
  5
60D
100
AcDbEntity
  8
C1
  0
INSERT
  5
60E
100
AcDbEntity
  8
CT1
100
AcDbBlockReference
  2
S_OFF
 10
16.703196
 20
9.350244
 30
0.0
 41
0.915702
 42
0.915702
 43
0.915702
 50
90.0
  0
INSERT
  5
60F
100
AcDbEntity
  8
CT1
100
AcDbBlockReference
  2
P_ON
 10
12.243385
 20
14.145847
 30
0.0
 41
0.915702
 42
0.915702
 43
0.915702
 50
90.0
  0
POLYLINE
  5
610
100
AcDbEntity
  8
C1
100
AcDb2dPolyline
 66
     1
 10
0.0
 20
0.0
 30
0.0
  0
VERTEX
  5
611
100
AcDbEntity
  8
C1
100
AcDbVertex
100
AcDb2dVertex
 10
12.285741
 20
14.136621
 30
0.0
 42
-0.179863
  0
VERTEX
  5
612
100
AcDbEntity
  8
C1
100
AcDbVertex
100
AcDb2dVertex
 10
11.53906
 20
14.077971
 30
0.0
 42
-0.14719
  0
VERTEX
  5
613
100
AcDbEntity
  8
C1
100
AcDbVertex
100
AcDb2dVertex
 10
10.989625
 20
14.520529
 30
0.0
 42
-0.129445
  0
VERTEX
  5
614
100
AcDbEntity
  8
C1
100
AcDbVertex
100
AcDb2dVertex
 10
10.751008
 20
15.18874
 30
0.0
 42
-0.019885
  0
VERTEX
  5
615
100
AcDbEntity
  8
C1
100
AcDbVertex
100
AcDb2dVertex
 10
10.747558
 20
15.264066
 30
0.0
 42
0.060736
  0
VERTEX
  5
616
100
AcDbEntity
  8
C1
100
AcDbVertex
100
AcDb2dVertex
 10
10.920883
 20
15.094633
 30
0.0
 42
0.217767
  0
VERTEX
  5
617
100
AcDbEntity
  8
C1
100
AcDbVertex
100
AcDb2dVertex
 10
11.732866
 20
14.909745
 30
0.0
 42
0.117957
  0
VERTEX
  5
618
100
AcDbEntity
  8
C1
100
AcDbVertex
100
AcDb2dVertex
 10
12.154512
 20
15.108137
 30
0.0
 42
0.050721
  0
VERTEX
  5
619
100
AcDbEntity
  8
C1
100
AcDbVertex
100
AcDb2dVertex
 10
12.299145
 20
15.250068
 30
0.0
  0
VERTEX
  5
61A
100
AcDbEntity
  8
C1
100
AcDbVertex
100
AcDb2dVertex
 10
12.299145
 20
14.14582
 30
0.0
  0
SEQEND
  5
61B
100
AcDbEntity
  8
C1
  0
INSERT
  5
61C
100
AcDbEntity
  8
CT1
100
AcDbBlockReference
  2
S_OFF
 10
11.687535
 20
14.365904
 30
0.0
 41
0.915702
 42
0.915702
 43
0.915702
 50
90.0
  0
INSERT
  5
61D
100
AcDbEntity
  8
CT1
100
AcDbBlockReference
  2
P_ON
 10
32.471022
 20
2.631111
 30
0.0
 41
0.915702
 42
0.915702
 43
0.915702
 50
90.0
  0
POLYLINE
  5
61E
100
AcDbEntity
  8
C1
100
AcDb2dPolyline
 66
     1
 10
0.0
 20
0.0
 30
0.0
 70
     1
  0
VERTEX
  5
61F
100
AcDbEntity
  8
C1
100
AcDbVertex
100
AcDb2dVertex
 10
32.412967
 20
2.644888
 30
0.0
  0
VERTEX
  5
620
100
AcDbEntity
  8
C1
100
AcDbVertex
100
AcDb2dVertex
 10
32.522917
 20
2.604283
 30
0.0
 42
0.000523
  0
VERTEX
  5
621
100
AcDbEntity
  8
C1
100
AcDbVertex
100
AcDb2dVertex
 10
33.123911
 20
2.390578
 30
0.0
 42
0.007499
  0
VERTEX
  5
622
100
AcDbEntity
  8
C1
100
AcDbVertex
100
AcDb2dVertex
 10
33.906696
 20
2.661996
 30
0.0
 42
0.000526
  0
VERTEX
  5
623
100
AcDbEntity
  8
C1
100
AcDbVertex
100
AcDb2dVertex
 10
33.949869
 20
2.677746
 30
0.0
 42
-0.000237
  0
VERTEX
  5
624
100
AcDbEntity
  8
C1
100
AcDbVertex
100
AcDb2dVertex
 10
33.860974
 20
2.770395
 30
0.0
 42
-0.01272
  0
VERTEX
  5
625
100
AcDbEntity
  8
C1
100
AcDbVertex
100
AcDb2dVertex
 10
33.612877
 20
3.042754
 30
0.0
 42
-0.009435
  0
VERTEX
  5
626
100
AcDbEntity
  8
C1
100
AcDbVertex
100
AcDb2dVertex
 10
32.64124
 20
2.715889
 30
0.0
 42
-0.002047
  0
SEQEND
  5
627
100
AcDbEntity
  8
C1
  0
INSERT
  5
628
100
AcDbEntity
  8
CT1
100
AcDbBlockReference
  2
S_OFF
 10
32.287695
 20
2.997783
 30
0.0
 41
0.915702
 42
0.915702
 43
0.915702
 50
90.0
  0
INSERT
  5
629
100
AcDbEntity
  8
CT1
100
AcDbBlockReference
  2
P_ON
 10
35.504352
 20
3.656378
 30
0.0
 41
0.915702
 42
0.915702
 43
0.915702
 50
90.0
  0
POLYLINE
  5
62A
100
AcDbEntity
  8
C1
100
AcDb2dPolyline
 66
     1
 10
0.0
 20
0.0
 30
0.0
 70
     2
  0
VERTEX
  5
62B
100
AcDbEntity
  8
C1
100
AcDbVertex
100
AcDb2dVertex
 10
35.480486
 20
3.671956
 30
0.0
 42
0.014308
  0
VERTEX
  5
62C
100
AcDbEntity
  8
C1
100
AcDbVertex
100
AcDb2dVertex
 10
38.366343
 20
4.882301
 30
0.0
 42
0.011642
  0
VERTEX
  5
62D
100
AcDbEntity
  8
C1
100
AcDbVertex
100
AcDb2dVertex
 10
40.600337
 20
6.105395
 30
0.0
 42
-0.061311
  0
VERTEX
  5
62E
100
AcDbEntity
  8
C1
100
AcDbVertex
100
AcDb2dVertex
 10
44.861508
 20
7.963714
 30
0.0
 42
-0.170095
  0
VERTEX
  5
62F
100
AcDbEntity
  8
C1
100
AcDbVertex
100
AcDb2dVertex
 10
49.527514
 20
7.738669
 30
0.0
 42
-0.190213
  0
VERTEX
  5
630
100
AcDbEntity
  8
C1
100
AcDbVertex
100
AcDb2dVertex
 10
52.573572
 20
4.837202
 30
0.0
 42
-0.132673
  0
VERTEX
  5
631
100
AcDbEntity
  8
C1
100
AcDbVertex
100
AcDb2dVertex
 10
52.916322
 20
2.840056
 30
0.0
 42
-0.015261
  0
VERTEX
  5
632
100
AcDbEntity
  8
C1
100
AcDbVertex
100
AcDb2dVertex
 10
52.869815
 20
2.468016
 30
0.0
  0
VERTEX
  5
633
100
AcDbEntity
  8
C1
100
AcDbVertex
100
AcDb2dVertex
 10
52.425188
 20
2.468016
 30
0.0
 42
0.116
  0
VERTEX
  5
634
100
AcDbEntity
  8
C1
100
AcDbVertex
100
AcDb2dVertex
 10
52.052486
 20
4.159791
 30
0.0
 42
0.184347
  0
VERTEX
  5
635
100
AcDbEntity
  8
C1
100
AcDbVertex
100
AcDb2dVertex
 10
49.046978
 20
7.007186
 30
0.0
 42
0.172775
  0
VERTEX
  5
636
100
AcDbEntity
  8
C1
100
AcDbVertex
100
AcDb2dVertex
 10
44.653074
 20
7.234194
 30
0.0
 42
0.050178
  0
VERTEX
  5
637
100
AcDbEntity
  8
C1
100
AcDbVertex
100
AcDb2dVertex
 10
40.565241
 20
5.549929
 30
0.0
 42
-0.036281
  0
VERTEX
  5
638
100
AcDbEntity
  8
C1
100
AcDbVertex
100
AcDb2dVertex
 10
35.565256
 20
3.325665
 30
0.0
 42
0.001467
  0
VERTEX
  5
639
100
AcDbEntity
  8
C1
100
AcDbVertex
100
AcDb2dVertex
 10
35.512908
 20
3.530035
 30
0.0
 42
0.007045
  0
VERTEX
  5
63A
100
AcDbEntity
  8
C1
100
AcDbVertex
100
AcDb2dVertex
 10
35.472315
 20
3.67491
 30
0.0
  0
VERTEX
  5
63B
100
AcDbEntity
  8
C1
100
AcDbVertex
100
AcDb2dVertex
 10
35.471707
 20
3.676955
 30
0.0
  0
SEQEND
  5
63C
100
AcDbEntity
  8
C1
  0
INSERT
  5
63D
100
AcDbEntity
  8
CT1
100
AcDbBlockReference
  2
S_OFF
 10
35.494366
 20
4.269788
 30
0.0
 41
0.915702
 42
0.915702
 43
0.915702
 50
90.0
  0
INSERT
  5
63E
100
AcDbEntity
  8
CT1
100
AcDbBlockReference
  2
P_ON
 10
34.265621
 20
2.298519
 30
0.0
 41
0.915702
 42
0.915702
 43
0.915702
 50
90.0
  0
POLYLINE
  5
63F
100
AcDbEntity
  8
C1
100
AcDb2dPolyline
 66
     1
 10
0.0
 20
0.0
 30
0.0
  0
VERTEX
  5
640
100
AcDbEntity
  8
C1
100
AcDbVertex
100
AcDb2dVertex
 10
34.284937
 20
2.338386
 30
0.0
  0
VERTEX
  5
641
100
AcDbEntity
  8
C1
100
AcDbVertex
100
AcDb2dVertex
 10
34.707785
 20
1.994998
 30
0.0
  0
VERTEX
  5
642
100
AcDbEntity
  8
C1
100
AcDbVertex
100
AcDb2dVertex
 10
34.372813
 20
1.994998
 30
0.0
 42
-0.00024
  0
VERTEX
  5
643
100
AcDbEntity
  8
C1
100
AcDbVertex
100
AcDb2dVertex
 10
33.712194
 20
2.187068
 30
0.0
 42
-0.006486
  0
VERTEX
  5
644
100
AcDbEntity
  8
C1
100
AcDbVertex
100
AcDb2dVertex
 10
33.661971
 20
2.202406
 30
0.0
 42
-0.007444
  0
VERTEX
  5
645
100
AcDbEntity
  8
C1
100
AcDbVertex
100
AcDb2dVertex
 10
33.54292
 20
2.242421
 30
0.0
 42
-0.000236
  0
VERTEX
  5
646
100
AcDbEntity
  8
C1
100
AcDbVertex
100
AcDb2dVertex
 10
33.271294
 20
2.338386
 30
0.0
  0
VERTEX
  5
647
100
AcDbEntity
  8
C1
100
AcDbVertex
100
AcDb2dVertex
 10
34.284937
 20
2.338386
 30
0.0
 42
0.003031
  0
VERTEX
  5
648
100
AcDbEntity
  8
C1
100
AcDbVertex
100
AcDb2dVertex
 10
34.295654
 20
2.329545
 30
0.0
  0
SEQEND
  5
649
100
AcDbEntity
  8
C1
  0
INSERT
  5
64A
100
AcDbEntity
  8
CT1
100
AcDbBlockReference
  2
S_OFF
 10
34.888831
 20
2.277995
 30
0.0
 41
0.915702
 42
0.915702
 43
0.915702
 50
90.0
  0
INSERT
  5
64B
100
AcDbEntity
  8
CT1
100
AcDbBlockReference
  2
P_ON
 10
32.349726
 20
2.007676
 30
0.0
 41
0.915702
 42
0.915702
 43
0.915702
 50
90.0
  0
POLYLINE
  5
64C
100
AcDbEntity
  8
C1
100
AcDb2dPolyline
 66
     1
 10
0.0
 20
0.0
 30
0.0
 70
     1
  0
VERTEX
  5
64D
100
AcDbEntity
  8
C1
100
AcDbVertex
100
AcDb2dVertex
 10
32.479048
 20
1.994998
 30
0.0
  0
VERTEX
  5
64E
100
AcDbEntity
  8
C1
100
AcDbVertex
100
AcDb2dVertex
 10
32.131535
 20
2.127086
 30
0.0
 42
-0.000625
  0
VERTEX
  5
64F
100
AcDbEntity
  8
C1
100
AcDbVertex
100
AcDb2dVertex
 10
31.607571
 20
2.338386
 30
0.0
  0
VERTEX
  5
650
100
AcDbEntity
  8
C1
100
AcDbVertex
100
AcDb2dVertex
 10
18.780155
 20
2.338386
 30
0.0
  0
VERTEX
  5
651
100
AcDbEntity
  8
C1
100
AcDbVertex
100
AcDb2dVertex
 10
18.345093
 20
1.994998
 30
0.0
  0
SEQEND
  5
652
100
AcDbEntity
  8
C1
  0
INSERT
  5
653
100
AcDbEntity
  8
CT1
100
AcDbBlockReference
  2
S_OFF
 10
32.131551
 20
1.211644
 30
0.0
 41
0.915702
 42
0.915702
 43
0.915702
 50
90.0
  0
INSERT
  5
654
100
AcDbEntity
  8
CT1
100
AcDbBlockReference
  2
P_ON
 10
40.682289
 20
1.859778
 30
0.0
 41
0.915702
 42
0.915702
 43
0.915702
 50
90.0
  0
POLYLINE
  5
655
100
AcDbEntity
  8
C1
100
AcDb2dPolyline
 66
     1
 10
0.0
 20
0.0
 30
0.0
  0
VERTEX
  5
656
100
AcDbEntity
  8
C1
100
AcDbVertex
100
AcDb2dVertex
 10
40.730769
 20
1.872505
 30
0.0
 42
-0.129464
  0
VERTEX
  5
657
100
AcDbEntity
  8
C1
100
AcDbVertex
100
AcDb2dVertex
 10
34.92416
 20
1.370053
 30
0.0
 42
-0.081472
  0
VERTEX
  5
658
100
AcDbEntity
  8
C1
100
AcDbVertex
100
AcDb2dVertex
 10
27.514535
 20
4.592232
 30
0.0
 42
0.030551
  0
VERTEX
  5
659
100
AcDbEntity
  8
C1
100
AcDbVertex
100
AcDb2dVertex
 10
24.576111
 20
6.24242
 30
0.0
 42
0.022916
  0
VERTEX
  5
65A
100
AcDbEntity
  8
C1
100
AcDbVertex
100
AcDb2dVertex
 10
24.013523
 20
6.080855
 30
0.0
 42
0.010374
  0
VERTEX
  5
65B
100
AcDbEntity
  8
C1
100
AcDbVertex
100
AcDb2dVertex
 10
22.740437
 20
5.621579
 30
0.0
 42
0.002169
  0
VERTEX
  5
65C
100
AcDbEntity
  8
C1
100
AcDbVertex
100
AcDb2dVertex
 10
22.668162
 20
5.593437
 30
0.0
 42
0.096158
  0
VERTEX
  5
65D
100
AcDbEntity
  8
C1
100
AcDbVertex
100
AcDb2dVertex
 10
21.664763
 20
4.490689
 30
0.0
 42
-0.149865
  0
VERTEX
  5
65E
100
AcDbEntity
  8
C1
100
AcDbVertex
100
AcDb2dVertex
 10
20.795017
 20
3.717422
 30
0.0
 42
-0.057358
  0
VERTEX
  5
65F
100
AcDbEntity
  8
C1
100
AcDbVertex
100
AcDb2dVertex
 10
19.818659
 20
3.399666
 30
0.0
 42
-0.056156
  0
VERTEX
  5
660
100
AcDbEntity
  8
C1
100
AcDbVertex
100
AcDb2dVertex
 10
18.774104
 20
3.307663
 30
0.0
 42
-0.074438
  0
VERTEX
  5
661
100
AcDbEntity
  8
C1
100
AcDbVertex
100
AcDb2dVertex
 10
18.152264
 20
3.416291
 30
0.0
 42
-0.039494
  0
VERTEX
  5
662
100
AcDbEntity
  8
C1
100
AcDbVertex
100
AcDb2dVertex
 10
17.574107
 20
3.661067
 30
0.0
 42
-0.040346
  0
VERTEX
  5
663
100
AcDbEntity
  8
C1
100
AcDbVertex
100
AcDb2dVertex
 10
17.572297
 20
3.79003
 30
0.0
 42
-0.14428
  0
VERTEX
  5
664
100
AcDbEntity
  8
C1
100
AcDbVertex
100
AcDb2dVertex
 10
17.631849
 20
3.951569
 30
0.0
 42
-0.094535
  0
VERTEX
  5
665
100
AcDbEntity
  8
C1
100
AcDbVertex
100
AcDb2dVertex
 10
17.796505
 20
4.102674
 30
0.0
 42
-0.041499
  0
VERTEX
  5
666
100
AcDbEntity
  8
C1
100
AcDbVertex
100
AcDb2dVertex
 10
18.24691
 20
4.332059
 30
0.0
 42
-0.045924
  0
VERTEX
  5
667
100
AcDbEntity
  8
C1
100
AcDbVertex
100
AcDb2dVertex
 10
18.545522
 20
4.423227
 30
0.0
 42
0.02313
  0
VERTEX
  5
668
100
AcDbEntity
  8
C1
100
AcDbVertex
100
AcDb2dVertex
 10
18.569084
 20
4.478402
 30
0.0
 42
0.110473
  0
VERTEX
  5
669
100
AcDbEntity
  8
C1
100
AcDbVertex
100
AcDb2dVertex
 10
18.610948
 20
4.781402
 30
0.0
 42
-0.132036
  0
VERTEX
  5
66A
100
AcDbEntity
  8
C1
100
AcDbVertex
100
AcDb2dVertex
 10
18.65695
 20
5.034503
 30
0.0
 42
-0.068126
  0
VERTEX
  5
66B
100
AcDbEntity
  8
C1
100
AcDbVertex
100
AcDb2dVertex
 10
18.852536
 20
5.334083
 30
0.0
 42
-0.105837
  0
VERTEX
  5
66C
100
AcDbEntity
  8
C1
100
AcDbVertex
100
AcDb2dVertex
 10
19.037702
 20
5.47353
 30
0.0
 42
-0.038269
  0
VERTEX
  5
66D
100
AcDbEntity
  8
C1
100
AcDbVertex
100
AcDb2dVertex
 10
19.385131
 20
5.603546
 30
0.0
 42
-0.017967
  0
VERTEX
  5
66E
100
AcDbEntity
  8
C1
100
AcDbVertex
100
AcDb2dVertex
 10
20.150668
 20
5.795483
 30
0.0
 42
-0.006782
  0
VERTEX
  5
66F
100
AcDbEntity
  8
C1
100
AcDbVertex
100
AcDb2dVertex
 10
20.634595
 20
5.891649
 30
0.0
 42
-0.001489
  0
VERTEX
  5
670
100
AcDbEntity
  8
C1
100
AcDbVertex
100
AcDb2dVertex
 10
22.845218
 20
6.293047
 30
0.0
 42
-0.018237
  0
VERTEX
  5
671
100
AcDbEntity
  8
C1
100
AcDbVertex
100
AcDb2dVertex
 10
24.095176
 20
6.469412
 30
0.0
 42
0.041933
  0
VERTEX
  5
672
100
AcDbEntity
  8
C1
100
AcDbVertex
100
AcDb2dVertex
 10
19.749655
 20
8.043513
 30
0.0
 42
0.024667
  0
VERTEX
  5
673
100
AcDbEntity
  8
C1
100
AcDbVertex
100
AcDb2dVertex
 10
16.904034
 20
8.663115
 30
0.0
 42
0.015459
  0
VERTEX
  5
674
100
AcDbEntity
  8
C1
100
AcDbVertex
100
AcDb2dVertex
 10
13.574614
 20
9.112467
 30
0.0
 42
0.000542
  0
VERTEX
  5
675
100
AcDbEntity
  8
C1
100
AcDbVertex
100
AcDb2dVertex
 10
13.526923
 20
9.196226
 30
0.0
 42
0.024429
  0
VERTEX
  5
676
100
AcDbEntity
  8
C1
100
AcDbVertex
100
AcDb2dVertex
 10
13.408218
 20
9.374411
 30
0.0
 42
0.015784
  0
VERTEX
  5
677
100
AcDbEntity
  8
C1
100
AcDbVertex
100
AcDb2dVertex
 10
13.32249
 20
9.483047
 30
0.0
 42
-0.01678
  0
VERTEX
  5
678
100
AcDbEntity
  8
C1
100
AcDbVertex
100
AcDb2dVertex
 10
16.96046
 20
9.001835
 30
0.0
 42
-0.024667
  0
VERTEX
  5
679
100
AcDbEntity
  8
C1
100
AcDbVertex
100
AcDb2dVertex
 10
19.839166
 20
8.375029
 30
0.0
 42
-0.07742
  0
VERTEX
  5
67A
100
AcDbEntity
  8
C1
100
AcDbVertex
100
AcDb2dVertex
 10
27.700641
 20
4.880814
 30
0.0
 42
0.081472
  0
VERTEX
  5
67B
100
AcDbEntity
  8
C1
100
AcDbVertex
100
AcDb2dVertex
 10
35.00832
 20
1.702968
 30
0.0
 42
0.012018
  0
VERTEX
  5
67C
100
AcDbEntity
  8
C1
100
AcDbVertex
100
AcDb2dVertex
 10
35.400564
 20
1.613781
 30
0.0
 42
-0.00888
  0
VERTEX
  5
67D
100
AcDbEntity
  8
C1
100
AcDbVertex
100
AcDb2dVertex
 10
34.798462
 20
2.057705
 30
0.0
 42
-0.046485
  0
VERTEX
  5
67E
100
AcDbEntity
  8
C1
100
AcDbVertex
100
AcDb2dVertex
 10
33.978132
 20
2.815787
 30
0.0
 42
-0.05167
  0
VERTEX
  5
67F
100
AcDbEntity
  8
C1
100
AcDbVertex
100
AcDb2dVertex
 10
32.230044
 20
5.220077
 30
0.0
 42
0.046778
  0
VERTEX
  5
680
100
AcDbEntity
  8
C1
100
AcDbVertex
100
AcDb2dVertex
 10
30.326053
 20
7.89327
 30
0.0
 42
0.053865
  0
VERTEX
  5
681
100
AcDbEntity
  8
C1
100
AcDbVertex
100
AcDb2dVertex
 10
29.149732
 20
8.990843
 30
0.0
 42
0.009995
  0
VERTEX
  5
682
100
AcDbEntity
  8
C1
100
AcDbVertex
100
AcDb2dVertex
 10
28.428387
 20
9.509271
 30
0.0
 42
-0.019949
  0
VERTEX
  5
683
100
AcDbEntity
  8
C1
100
AcDbVertex
100
AcDb2dVertex
 10
28.943497
 20
9.540693
 30
0.0
 42
-0.090655
  0
VERTEX
  5
684
100
AcDbEntity
  8
C1
100
AcDbVertex
100
AcDb2dVertex
 10
30.707991
 20
9.256337
 30
0.0
 42
-0.042689
  0
VERTEX
  5
685
100
AcDbEntity
  8
C1
100
AcDbVertex
100
AcDb2dVertex
 10
32.139547
 20
8.606848
 30
0.0
 42
-0.064876
  0
VERTEX
  5
686
100
AcDbEntity
  8
C1
100
AcDbVertex
100
AcDb2dVertex
 10
32.970692
 20
7.986966
 30
0.0
 42
-0.129027
  0
VERTEX
  5
687
100
AcDbEntity
  8
C1
100
AcDbVertex
100
AcDb2dVertex
 10
33.541909
 20
7.04213
 30
0.0
 42
-0.025208
  0
VERTEX
  5
688
100
AcDbEntity
  8
C1
100
AcDbVertex
100
AcDb2dVertex
 10
33.634494
 20
6.658361
 30
0.0
 42
-0.13314
  0
VERTEX
  5
689
100
AcDbEntity
  8
C1
100
AcDbVertex
100
AcDb2dVertex
 10
34.002801
 20
6.479589
 30
0.0
 42
-0.086057
  0
VERTEX
  5
68A
100
AcDbEntity
  8
C1
100
AcDbVertex
100
AcDb2dVertex
 10
34.26143
 20
6.161388
 30
0.0
 42
-0.047693
  0
VERTEX
  5
68B
100
AcDbEntity
  8
C1
100
AcDbVertex
100
AcDb2dVertex
 10
34.558552
 20
5.487893
 30
0.0
 42
-0.075277
  0
VERTEX
  5
68C
100
AcDbEntity
  8
C1
100
AcDbVertex
100
AcDb2dVertex
 10
34.694923
 20
4.69297
 30
0.0
 42
-0.014204
  0
VERTEX
  5
68D
100
AcDbEntity
  8
C1
100
AcDbVertex
100
AcDb2dVertex
 10
35.327813
 20
3.688479
 30
0.0
 42
-0.084439
  0
VERTEX
  5
68E
100
AcDbEntity
  8
C1
100
AcDbVertex
100
AcDb2dVertex
 10
35.464423
 20
2.998697
 30
0.0
 42
-0.06214
  0
VERTEX
  5
68F
100
AcDbEntity
  8
C1
100
AcDbVertex
100
AcDb2dVertex
 10
35.401878
 20
2.356463
 30
0.0
 42
0.041589
  0
VERTEX
  5
690
100
AcDbEntity
  8
C1
100
AcDbVertex
100
AcDb2dVertex
 10
35.764475
 20
1.903427
 30
0.0
 42
0.044977
  0
VERTEX
  5
691
100
AcDbEntity
  8
C1
100
AcDbVertex
100
AcDb2dVertex
 10
36.234963
 20
1.488435
 30
0.0
 42
0.09177
  0
VERTEX
  5
692
100
AcDbEntity
  8
C1
100
AcDbVertex
100
AcDb2dVertex
 10
39.270495
 20
1.745095
 30
0.0
 42
0.003316
  0
VERTEX
  5
693
100
AcDbEntity
  8
C1
100
AcDbVertex
100
AcDb2dVertex
 10
39.674144
 20
1.879481
 30
0.0
  0
VERTEX
  5
694
100
AcDbEntity
  8
C1
100
AcDbVertex
100
AcDb2dVertex
 10
40.81244
 20
1.879481
 30
0.0
  0
SEQEND
  5
695
100
AcDbEntity
  8
C1
  0
INSERT
  5
696
100
AcDbEntity
  8
CT1
100
AcDbBlockReference
  2
S_OFF
 10
40.529069
 20
0.884121
 30
0.0
 41
0.915702
 42
0.915702
 43
0.915702
 50
90.0
  0
ENDBLK
  5
697
100
AcDbEntity
  8
C1
100
AcDbBlockEnd
  0
BLOCK
  5
698
100
AcDbEntity
  8
C1
100
AcDbBlockBegin
  2
FLOWER3
 70
    64
 10
0.0
 20
0.0
 30
0.0
  3
FLOWER3
  1

  0
INSERT
  5
699
100
AcDbEntity
  8
CT1
100
AcDbBlockReference
  2
P_ON
 10
47.860725
 20
2.600639
 30
0.0
 41
0.915702
 42
0.915702
 43
0.915702
 50
90.0
  0
POLYLINE
  5
69A
100
AcDbEntity
  8
C1
100
AcDb2dPolyline
 66
     1
 10
0.0
 20
0.0
 30
0.0
  0
VERTEX
  5
69B
100
AcDbEntity
  8
C1
100
AcDbVertex
100
AcDb2dVertex
 10
47.819034
 20
2.643086
 30
0.0
 42
-0.034183
  0
VERTEX
  5
69C
100
AcDbEntity
  8
C1
100
AcDbVertex
100
AcDb2dVertex
 10
48.024741
 20
2.570351
 30
0.0
 42
-0.053006
  0
VERTEX
  5
69D
100
AcDbEntity
  8
C1
100
AcDbVertex
100
AcDb2dVertex
 10
48.090143
 20
2.526233
 30
0.0
 42
-0.072631
  0
VERTEX
  5
69E
100
AcDbEntity
  8
C1
100
AcDbVertex
100
AcDb2dVertex
 10
48.173078
 20
2.43289
 30
0.0
 42
-0.062286
  0
VERTEX
  5
69F
100
AcDbEntity
  8
C1
100
AcDbVertex
100
AcDb2dVertex
 10
48.237239
 20
2.30241
 30
0.0
 42
-0.058095
  0
VERTEX
  5
6A0
100
AcDbEntity
  8
C1
100
AcDbVertex
100
AcDb2dVertex
 10
48.26931
 20
2.156628
 30
0.0
 42
-0.011039
  0
VERTEX
  5
6A1
100
AcDbEntity
  8
C1
100
AcDbVertex
100
AcDb2dVertex
 10
48.271186
 20
2.132746
 30
0.0
  0
VERTEX
  5
6A2
100
AcDbEntity
  8
C1
100
AcDbVertex
100
AcDb2dVertex
 10
48.159591
 20
1.998276
 30
0.0
 42
-0.116386
  0
VERTEX
  5
6A3
100
AcDbEntity
  8
C1
100
AcDbVertex
100
AcDb2dVertex
 10
47.816387
 20
1.859778
 30
0.0
 42
-0.073063
  0
VERTEX
  5
6A4
100
AcDbEntity
  8
C1
100
AcDbVertex
100
AcDb2dVertex
 10
47.621494
 20
1.858616
 30
0.0
 42
0.007968
  0
VERTEX
  5
6A5
100
AcDbEntity
  8
C1
100
AcDbVertex
100
AcDb2dVertex
 10
47.674601
 20
1.925823
 30
0.0
 42
0.065954
  0
VERTEX
  5
6A6
100
AcDbEntity
  8
C1
100
AcDbVertex
100
AcDb2dVertex
 10
47.783286
 20
2.172477
 30
0.0
 42
0.07095
  0
VERTEX
  5
6A7
100
AcDbEntity
  8
C1
100
AcDbVertex
100
AcDb2dVertex
 10
47.824196
 20
2.45933
 30
0.0
  0
VERTEX
  5
6A8
100
AcDbEntity
  8
C1
100
AcDbVertex
100
AcDb2dVertex
 10
47.813349
 20
2.638549
 30
0.0
  0
SEQEND
  5
6A9
100
AcDbEntity
  8
C1
  0
INSERT
  5
6AA
100
AcDbEntity
  8
CT1
100
AcDbBlockReference
  2
S_OFF
 10
47.337951
 20
2.533211
 30
0.0
 41
0.915702
 42
0.915702
 43
0.915702
 50
90.0
  0
INSERT
  5
6AB
100
AcDbEntity
  8
CT1
100
AcDbBlockReference
  2
P_ON
 10
47.305038
 20
2.022528
 30
0.0
 41
0.915702
 42
0.915702
 43
0.915702
 50
90.0
  0
POLYLINE
  5
6AC
100
AcDbEntity
  8
C1
100
AcDb2dPolyline
 66
     1
 10
0.0
 20
0.0
 30
0.0
  0
VERTEX
  5
6AD
100
AcDbEntity
  8
C1
100
AcDbVertex
100
AcDb2dVertex
 10
47.284397
 20
1.991243
 30
0.0
 42
-0.033742
  0
VERTEX
  5
6AE
100
AcDbEntity
  8
C1
100
AcDbVertex
100
AcDb2dVertex
 10
47.169671
 20
2.07492
 30
0.0
 42
-0.127275
  0
VERTEX
  5
6AF
100
AcDbEntity
  8
C1
100
AcDbVertex
100
AcDb2dVertex
 10
47.043284
 20
2.251962
 30
0.0
 42
-0.04156
  0
VERTEX
  5
6B0
100
AcDbEntity
  8
C1
100
AcDbVertex
100
AcDb2dVertex
 10
47.019179
 20
2.334631
 30
0.0
  0
VERTEX
  5
6B1
100
AcDbEntity
  8
C1
100
AcDbVertex
100
AcDb2dVertex
 10
47.686457
 20
2.334631
 30
0.0
 42
-0.035983
  0
VERTEX
  5
6B2
100
AcDbEntity
  8
C1
100
AcDbVertex
100
AcDb2dVertex
 10
47.6594
 20
2.208548
 30
0.0
 42
-0.064079
  0
VERTEX
  5
6B3
100
AcDbEntity
  8
C1
100
AcDbVertex
100
AcDb2dVertex
 10
47.567844
 20
1.998647
 30
0.0
  0
VERTEX
  5
6B4
100
AcDbEntity
  8
C1
100
AcDbVertex
100
AcDb2dVertex
 10
47.562129
 20
1.991243
 30
0.0
  0
VERTEX
  5
6B5
100
AcDbEntity
  8
C1
100
AcDbVertex
100
AcDb2dVertex
 10
47.290212
 20
1.990146
 30
0.0
  0
SEQEND
  5
6B6
100
AcDbEntity
  8
C1
  0
INSERT
  5
6B7
100
AcDbEntity
  8
CT1
100
AcDbBlockReference
  2
S_OFF
 10
47.261784
 20
0.762306
 30
0.0
 41
0.915702
 42
0.915702
 43
0.915702
 50
90.0
  0
INSERT
  5
6B8
100
AcDbEntity
  8
CT1
100
AcDbBlockReference
  2
P_ON
 10
48.671484
 20
2.012269
 30
0.0
 41
0.915702
 42
0.915702
 43
0.915702
 50
90.0
  0
POLYLINE
  5
6B9
100
AcDbEntity
  8
C1
100
AcDb2dPolyline
 66
     1
 10
0.0
 20
0.0
 30
0.0
  0
VERTEX
  5
6BA
100
AcDbEntity
  8
C1
100
AcDbVertex
100
AcDb2dVertex
 10
48.730887
 20
1.988173
 30
0.0
  0
VERTEX
  5
6BB
100
AcDbEntity
  8
C1
100
AcDbVertex
100
AcDb2dVertex
 10
48.32143
 20
1.991243
 30
0.0
  0
VERTEX
  5
6BC
100
AcDbEntity
  8
C1
100
AcDbVertex
100
AcDb2dVertex
 10
48.400905
 20
2.087009
 30
0.0
 42
0.030785
  0
VERTEX
  5
6BD
100
AcDbEntity
  8
C1
100
AcDbVertex
100
AcDb2dVertex
 10
48.39769
 20
2.169571
 30
0.0
 42
0.042234
  0
VERTEX
  5
6BE
100
AcDbEntity
  8
C1
100
AcDbVertex
100
AcDb2dVertex
 10
48.373708
 20
2.297794
 30
0.0
  0
VERTEX
  5
6BF
100
AcDbEntity
  8
C1
100
AcDbVertex
100
AcDb2dVertex
 10
48.628031
 20
2.10689
 30
0.0
  0
VERTEX
  5
6C0
100
AcDbEntity
  8
C1
100
AcDbVertex
100
AcDb2dVertex
 10
48.74056
 20
1.991243
 30
0.0
  0
SEQEND
  5
6C1
100
AcDbEntity
  8
C1
  0
INSERT
  5
6C2
100
AcDbEntity
  8
CT1
100
AcDbBlockReference
  2
S_OFF
 10
48.853694
 20
1.398308
 30
0.0
 41
0.915702
 42
0.915702
 43
0.915702
 50
90.0
  0
INSERT
  5
6C3
100
AcDbEntity
  8
CT1
100
AcDbBlockReference
  2
P_ON
 10
52.729124
 20
1.879898
 30
0.0
 41
0.915702
 42
0.915702
 43
0.915702
 50
90.0
  0
POLYLINE
  5
6C4
100
AcDbEntity
  8
C1
100
AcDb2dPolyline
 66
     1
 10
0.0
 20
0.0
 30
0.0
  0
VERTEX
  5
6C5
100
AcDbEntity
  8
C1
100
AcDbVertex
100
AcDb2dVertex
 10
52.78784
 20
1.895403
 30
0.0
 42
-0.079836
  0
VERTEX
  5
6C6
100
AcDbEntity
  8
C1
100
AcDbVertex
100
AcDb2dVertex
 10
52.348258
 20
1.255892
 30
0.0
 42
-0.064349
  0
VERTEX
  5
6C7
100
AcDbEntity
  8
C1
100
AcDbVertex
100
AcDb2dVertex
 10
51.663446
 20
0.785635
 30
0.0
 42
-0.100454
  0
VERTEX
  5
6C8
100
AcDbEntity
  8
C1
100
AcDbVertex
100
AcDb2dVertex
 10
51.147963
 20
0.641315
 30
0.0
 42
-0.070467
  0
VERTEX
  5
6C9
100
AcDbEntity
  8
C1
100
AcDbVertex
100
AcDb2dVertex
 10
50.509365
 20
0.684779
 30
0.0
 42
-0.108568
  0
VERTEX
  5
6CA
100
AcDbEntity
  8
C1
100
AcDbVertex
100
AcDb2dVertex
 10
50.1283
 20
0.857218
 30
0.0
 42
-0.023265
  0
VERTEX
  5
6CB
100
AcDbEntity
  8
C1
100
AcDbVertex
100
AcDb2dVertex
 10
49.742161
 20
1.17446
 30
0.0
 42
-0.012038
  0
VERTEX
  5
6CC
100
AcDbEntity
  8
C1
100
AcDbVertex
100
AcDb2dVertex
 10
49.041301
 20
1.838403
 30
0.0
 42
-0.028766
  0
VERTEX
  5
6CD
100
AcDbEntity
  8
C1
100
AcDbVertex
100
AcDb2dVertex
 10
48.560645
 20
2.374581
 30
0.0
 42
0.035573
  0
VERTEX
  5
6CE
100
AcDbEntity
  8
C1
100
AcDbVertex
100
AcDb2dVertex
 10
48.16593
 20
2.803021
 30
0.0
 42
0.142953
  0
VERTEX
  5
6CF
100
AcDbEntity
  8
C1
100
AcDbVertex
100
AcDb2dVertex
 10
47.749829
 20
3.015041
 30
0.0
 42
0.130386
  0
VERTEX
  5
6D0
100
AcDbEntity
  8
C1
100
AcDbVertex
100
AcDb2dVertex
 10
47.240859
 20
2.978309
 30
0.0
 42
0.179297
  0
VERTEX
  5
6D1
100
AcDbEntity
  8
C1
100
AcDbVertex
100
AcDb2dVertex
 10
46.934373
 20
2.72732
 30
0.0
 42
0.172182
  0
VERTEX
  5
6D2
100
AcDbEntity
  8
C1
100
AcDbVertex
100
AcDb2dVertex
 10
46.857149
 20
2.323117
 30
0.0
 42
0.176537
  0
VERTEX
  5
6D3
100
AcDbEntity
  8
C1
100
AcDbVertex
100
AcDb2dVertex
 10
47.040591
 20
1.988692
 30
0.0
 42
0.118341
  0
VERTEX
  5
6D4
100
AcDbEntity
  8
C1
100
AcDbVertex
100
AcDb2dVertex
 10
47.535855
 20
1.728314
 30
0.0
 42
0.118305
  0
VERTEX
  5
6D5
100
AcDbEntity
  8
C1
100
AcDbVertex
100
AcDb2dVertex
 10
47.989071
 20
1.722457
 30
0.0
 42
0.045847
  0
VERTEX
  5
6D6
100
AcDbEntity
  8
C1
100
AcDbVertex
100
AcDb2dVertex
 10
48.161402
 20
1.778463
 30
0.0
 42
-0.136736
  0
VERTEX
  5
6D7
100
AcDbEntity
  8
C1
100
AcDbVertex
100
AcDb2dVertex
 10
47.720708
 20
1.422844
 30
0.0
 42
-0.16597
  0
VERTEX
  5
6D8
100
AcDbEntity
  8
C1
100
AcDbVertex
100
AcDb2dVertex
 10
47.043125
 20
1.369722
 30
0.0
 42
-0.173005
  0
VERTEX
  5
6D9
100
AcDbEntity
  8
C1
100
AcDbVertex
100
AcDb2dVertex
 10
46.486409
 20
1.745158
 30
0.0
 42
-0.156517
  0
VERTEX
  5
6DA
100
AcDbEntity
  8
C1
100
AcDbVertex
100
AcDb2dVertex
 10
46.251123
 20
2.444964
 30
0.0
 42
-0.259779
  0
VERTEX
  5
6DB
100
AcDbEntity
  8
C1
100
AcDbVertex
100
AcDb2dVertex
 10
46.84571
 20
3.547741
 30
0.0
 42
-0.297483
  0
VERTEX
  5
6DC
100
AcDbEntity
  8
C1
100
AcDbVertex
100
AcDb2dVertex
 10
47.961249
 20
3.536238
 30
0.0
 42
-0.014485
  0
VERTEX
  5
6DD
100
AcDbEntity
  8
C1
100
AcDbVertex
100
AcDb2dVertex
 10
48.382729
 20
3.236882
 30
0.0
 42
-0.011024
  0
VERTEX
  5
6DE
100
AcDbEntity
  8
C1
100
AcDbVertex
100
AcDb2dVertex
 10
48.915714
 20
2.815847
 30
0.0
 42
-0.043152
  0
VERTEX
  5
6DF
100
AcDbEntity
  8
C1
100
AcDbVertex
100
AcDb2dVertex
 10
49.915375
 20
1.833063
 30
0.0
 42
0.074701
  0
VERTEX
  5
6E0
100
AcDbEntity
  8
C1
100
AcDbVertex
100
AcDb2dVertex
 10
50.529645
 20
1.300782
 30
0.0
 42
0.156848
  0
VERTEX
  5
6E1
100
AcDbEntity
  8
C1
100
AcDbVertex
100
AcDb2dVertex
 10
50.877296
 20
1.210632
 30
0.0
 42
0.075025
  0
VERTEX
  5
6E2
100
AcDbEntity
  8
C1
100
AcDbVertex
100
AcDb2dVertex
 10
51.598474
 20
1.36224
 30
0.0
 42
0.115
  0
VERTEX
  5
6E3
100
AcDbEntity
  8
C1
100
AcDbVertex
100
AcDb2dVertex
 10
52.058367
 20
1.667486
 30
0.0
 42
0.046011
  0
VERTEX
  5
6E4
100
AcDbEntity
  8
C1
100
AcDbVertex
100
AcDb2dVertex
 10
52.242252
 20
1.902533
 30
0.0
  0
VERTEX
  5
6E5
100
AcDbEntity
  8
C1
100
AcDbVertex
100
AcDb2dVertex
 10
52.780991
 20
1.902533
 30
0.0
  0
SEQEND
  5
6E6
100
AcDbEntity
  8
C1
  0
INSERT
  5
6E7
100
AcDbEntity
  8
CT1
100
AcDbBlockReference
  2
S_OFF
 10
52.699953
 20
0.970204
 30
0.0
 41
0.915702
 42
0.915702
 43
0.915702
 50
90.0
  0
INSERT
  5
6E8
100
AcDbEntity
  8
CT1
100
AcDbBlockReference
  2
P_ON
 10
41.41027
 20
2.485548
 30
0.0
 41
0.915702
 42
0.915702
 43
0.915702
 50
90.0
  0
POLYLINE
  5
6E9
100
AcDbEntity
  8
C1
100
AcDb2dPolyline
 66
     1
 10
0.0
 20
0.0
 30
0.0
  0
VERTEX
  5
6EA
100
AcDbEntity
  8
C1
100
AcDbVertex
100
AcDb2dVertex
 10
41.342103
 20
2.536588
 30
0.0
  0
VERTEX
  5
6EB
100
AcDbEntity
  8
C1
100
AcDbVertex
100
AcDb2dVertex
 10
46.330264
 20
5.042402
 30
0.0
 42
0.089216
  0
VERTEX
  5
6EC
100
AcDbEntity
  8
C1
100
AcDbVertex
100
AcDb2dVertex
 10
46.655041
 20
4.902774
 30
0.0
 42
0.228011
  0
VERTEX
  5
6ED
100
AcDbEntity
  8
C1
100
AcDbVertex
100
AcDb2dVertex
 10
47.010521
 20
5.013239
 30
0.0
 42
-0.179626
  0
VERTEX
  5
6EE
100
AcDbEntity
  8
C1
100
AcDbVertex
100
AcDb2dVertex
 10
47.438623
 20
5.191307
 30
0.0
 42
-0.074363
  0
VERTEX
  5
6EF
100
AcDbEntity
  8
C1
100
AcDbVertex
100
AcDb2dVertex
 10
47.877832
 20
5.082782
 30
0.0
 42
-0.036109
  0
VERTEX
  5
6F0
100
AcDbEntity
  8
C1
100
AcDbVertex
100
AcDb2dVertex
 10
42.43169
 20
2.472059
 30
0.0
  0
VERTEX
  5
6F1
100
AcDbEntity
  8
C1
100
AcDbVertex
100
AcDb2dVertex
 10
41.273145
 20
2.472059
 30
0.0
  0
SEQEND
  5
6F2
100
AcDbEntity
  8
C1
  0
INSERT
  5
6F3
100
AcDbEntity
  8
CT1
100
AcDbBlockReference
  2
S_OFF
 10
41.617353
 20
3.555173
 30
0.0
 41
0.915702
 42
0.915702
 43
0.915702
 50
90.0
  0
INSERT
  5
6F4
100
AcDbEntity
  8
CT1
100
AcDbBlockReference
  2
P_ON
 10
35.884585
 20
2.070481
 30
0.0
 41
0.915702
 42
0.915702
 43
0.915702
 50
90.0
  0
POLYLINE
  5
6F5
100
AcDbEntity
  8
C1
100
AcDb2dPolyline
 66
     1
 10
0.0
 20
0.0
 30
0.0
  0
VERTEX
  5
6F6
100
AcDbEntity
  8
C1
100
AcDbVertex
100
AcDb2dVertex
 10
35.856844
 20
1.991243
 30
0.0
 42
-0.009876
  0
VERTEX
  5
6F7
100
AcDbEntity
  8
C1
100
AcDbVertex
100
AcDb2dVertex
 10
35.72427
 20
2.126899
 30
0.0
 42
-0.014455
  0
VERTEX
  5
6F8
100
AcDbEntity
  8
C1
100
AcDbVertex
100
AcDb2dVertex
 10
35.540136
 20
2.334631
 30
0.0
  0
VERTEX
  5
6F9
100
AcDbEntity
  8
C1
100
AcDbVertex
100
AcDb2dVertex
 10
46.150223
 20
2.334631
 30
0.0
  0
VERTEX
  5
6FA
100
AcDbEntity
  8
C1
100
AcDbVertex
100
AcDb2dVertex
 10
46.221749
 20
1.991243
 30
0.0
  0
VERTEX
  5
6FB
100
AcDbEntity
  8
C1
100
AcDbVertex
100
AcDb2dVertex
 10
35.885045
 20
1.990326
 30
0.0
  0
SEQEND
  5
6FC
100
AcDbEntity
  8
C1
  0
INSERT
  5
6FD
100
AcDbEntity
  8
CT1
100
AcDbBlockReference
  2
S_OFF
 10
35.629871
 20
1.322378
 30
0.0
 41
0.915702
 42
0.915702
 43
0.915702
 50
90.0
  0
ENDBLK
  5
6FE
100
AcDbEntity
  8
C1
100
AcDbBlockEnd
  0
ENDSEC
  0
SECTION
  2
ENTITIES
  0
POLYLINE
  5
6FF
100
AcDbEntity
  8
FRAME
100
AcDb2dPolyline
 66
     1
 10
0.0
 20
0.0
 30
0.0
  0
VERTEX
  5
700
100
AcDbEntity
  8
FRAME
100
AcDbVertex
100
AcDb2dVertex
 10
0.0
 20
27.615924
 30
0.0
  0
VERTEX
  5
701
100
AcDbEntity
  8
FRAME
100
AcDbVertex
100
AcDb2dVertex
 10
63.0
 20
27.615924
 30
0.0
  0
VERTEX
  5
702
100
AcDbEntity
  8
FRAME
100
AcDbVertex
100
AcDb2dVertex
 10
63.0
 20
-0.009076
 30
0.0
  0
VERTEX
  5
703
100
AcDbEntity
  8
FRAME
100
AcDbVertex
100
AcDb2dVertex
 10
0.0
 20
-0.009076
 30
0.0
  0
VERTEX
  5
704
100
AcDbEntity
  8
FRAME
100
AcDbVertex
100
AcDb2dVertex
 10
0.0
 20
27.615924
 30
0.0
  0
SEQEND
  5
705
100
AcDbEntity
  8
FRAME
  0
POLYLINE
  5
706
100
AcDbEntity
  8
FRAME
100
AcDb2dPolyline
 66
     1
 10
0.0
 20
0.0
 30
0.0
 70
     1
  0
VERTEX
  5
707
100
AcDbEntity
  8
FRAME
100
AcDbVertex
100
AcDb2dVertex
 10
2.0
 20
25.615924
 30
0.0
  0
VERTEX
  5
708
100
AcDbEntity
  8
FRAME
100
AcDbVertex
100
AcDb2dVertex
 10
61.0
 20
25.615924
 30
0.0
  0
VERTEX
  5
709
100
AcDbEntity
  8
FRAME
100
AcDbVertex
100
AcDb2dVertex
 10
61.0
 20
1.990924
 30
0.0
  0
VERTEX
  5
70A
100
AcDbEntity
  8
FRAME
100
AcDbVertex
100
AcDb2dVertex
 10
2.0
 20
1.990924
 30
0.0
  0
SEQEND
  5
70B
100
AcDbEntity
  8
FRAME
  0
INSERT
  5
70C
100
AcDbEntity
  8
CT1
100
AcDbBlockReference
  2
KEY
 10
-283.653857
 20
63.296799
 30
0.0
 41
3.050557
 42
3.050557
 43
3.050557
  0
INSERT
  5
70D
100
AcDbEntity
  8
CT1
100
AcDbBlockReference
  2
SEQ_CT1
 10
0.0
 20
0.0
 30
0.0
  0
INSERT
  5
70E
100
AcDbEntity
  8
BASE
100
AcDbBlockReference
  2
SEQ_BASE
 10
0.0
 20
0.0
 30
0.0
  0
INSERT
  5
712
100
AcDbEntity
  8
CT1
100
AcDbBlockReference
  2
MOVE_S1
 10
214.327465
 20
51.288778
 30
0.0
 41
-1.118266
 42
1.118266
 43
1.118266
 50
90.0
  0
TEXT
  5
713
100
AcDbEntity
  8
CT1
100
AcDbText
 10
212.794099
 20
51.429373
 30
0.0
 40
0.557733
  1
RAPID
 50
270.0
100
AcDbText
  0
TEXT
  5
714
100
AcDbEntity
  8
CT1
100
AcDbText
 10
235.509809
 20
33.074066
 30
0.0
 40
0.407019
  1
PROGRAM,  STR+Y.5
 50
270.0
100
AcDbText
  0
TEXT
  5
715
100
AcDbEntity
  8
CT1
100
AcDbText
 10
234.831444
 20
33.074066
 30
0.0
 40
0.407019
  1
PROGRAM,  STR+X.5
 50
270.0
100
AcDbText
  0
POINT
  5
716
100
AcDbEntity
  8
CT1
100
AcDbPoint
 10
232.616178
 20
25.196464
 30
0.0
  0
TEXT
  5
717
100
AcDbEntity
  8
CT1
100
AcDbText
 10
234.15308
 20
33.074066
 30
0.0
 40
0.407019
  1
PROGRAM,  STR-Y.5
 50
270.0
100
AcDbText
  0
TEXT
  5
718
100
AcDbEntity
  8
CT1
100
AcDbText
 10
233.474715
 20
33.074066
 30
0.0
 40
0.407019
  1
PROGRAM,  STR-X.5
 50
270.0
100
AcDbText
  0
INSERT
  5
719
100
AcDbEntity
  8
C1
100
AcDbBlockReference
  2
BORDER
 10
218.813254
 20
56.696464
 30
0.0
 50
270.0
  0
INSERT
  5
71A
100
AcDbEntity
  8
C1
100
AcDbBlockReference
  2
FLOWER2
 10
218.813254
 20
56.696464
 30
0.0
 50
270.0
  0
INSERT
  5
71B
100
AcDbEntity
  8
C1
100
AcDbBlockReference
  2
FLOWER
 10
218.813254
 20
56.696464
 30
0.0
 50
270.0
  0
INSERT
  5
71C
100
AcDbEntity
  8
C1
100
AcDbBlockReference
  2
FLOWER3
 10
218.813254
 20
56.696464
 30
0.0
 50
270.0
  0
ENDSEC
  0
SECTION
  2
OBJECTS
  0
DICTIONARY
  5
C
100
AcDbDictionary
  3
ACAD_GROUP
350
D
  3
ACAD_MLINESTYLE
350
E
  0
DICTIONARY
  5
D
102
{ACAD_REACTORS
330
C
102
}
100
AcDbDictionary
  0
DICTIONARY
  5
E
102
{ACAD_REACTORS
330
C
102
}
100
AcDbDictionary
  3
STANDARD
350
1B
  0
MLINESTYLE
  5
1B
102
{ACAD_REACTORS
330
E
102
}
100
AcDbMlineStyle
  2
STANDARD
 70
     0
  3

 62
     0
 51
90.0
 52
90.0
 71
     2
 49
0.5
 62
   256
  6
BYLAYER
 49
-0.5
 62
   256
  6
BYLAYER
  0
ENDSEC
  0
EOF
